» » »

Bad Bass tabs (ver.3)

Artists:  A B C D E F G H I J K L M N O P Q R S T U V W X Y Z # 

Bad Bass tabs (ver.3)

Jackson Michael
Rating:
0/5 (0 votes)

Hard to play? Try these video lessons and learn fast.
                Song/CD: Bad
Band/Performed by: Michael Jackson
Tuning/others: standard

This is a correction from an earlier tab posted by Vick garbugli. I believe this sounds correct.


G:--------------------------------
D:----------1-2-3--------1-2-3----
A:----1--4--------1--4------------
E:--------------------------------

an easier way to play it if you have smaller hands

G:--------------------------------
D:--------------------------------
A:----------6-7-8---------6-7-8---
E:----6--9----------6--9----------


Listen to the song for the rythm.
            
Hard to play? Try these video lessons and learn fast. | Correct




comments powered by Disqus
↑ Back to top | Tablatures and chords are parodies/interpretations of the original songs. You may use it for private study, scholarship, research or language learning purposes only