» » »

Marlene Tabs (ver.1)

Artists:  A B C D E F G H I J K L M N O P Q R S T U V W X Y Z # 

Marlene Tabs (ver.1)

Jackson C Frank
Rating:
0/5 (0 votes)

Hard to play? Try these video lessons and learn fast.
                This is a guitar tab for the song "Marlene" by Jackson C Frank. I do not own the rights 
to this song. Any "...." following a word indicate that the word is held. Send any 

Standard tuning
Capo 3

  E minor                                                      The ghost of
E---------------------------------------------------------------------------|
B---------------------------------------------------------------------------|
G-0---------------------------0---------------------------0-----------------|
D-2---2-0-2-0---2---2-0-2-0---2---2-0-2-0---2---2-0-2-0---2---2--0--2--0----|
A-2-----------2-2-----------2-2-----------2-2-----------2-2---------------2-|
E-0-------------0---------------------------0-------------------------------|

            (Am, strum directed strings of these chords)
  her......   floats over there and the smile, the smile it seems so
E------------0----------------3-----------------------------------------|
B------------1----------------1------------------------------1----------|
G------------2----------------2-----------2------------------2----------|
D-2-2-0-2-0--2----------------2-----------2------------------2----------|
A-2--------2------------------------------0------------------0----------|
E-0---------------------------------------0------------------0----------|

  lonely
E-----------------| The song follows the same music for the rest of the verses
B-----------------|
G-0---------------|
D-2---2-0-2-0---2-|
A-2-----------2-2-|
E-0-------------0-|

the rest of the lyrics:
She gave me her hand
As I struck up the band
And she seemed to sigh, she seemed to sigh
You're the only

And then we danced like two snowflakes
In the fallen wind
In the wind
And in
Won't you let Marlene come in

The gymnasium floor
The price bound door
The jungle bird the jungle bird
That you showed me
Her love was so clean
To tell the truth Marlene
The sound of your tambourine still owns me

We were so young then
Now that I'm old I know, oh I know
I loved you right then
I would have made Marlene let go

My friends in the bars
Hell they only see the scars
And I do not give a damn, I do not give a damn That I loved you
I don't know why
But once you seen the sky
You think you know all birds are lovely

But this snow on the ground
It would start tonight
It's 22 years dead
Since I saw the light

The world it explodes
As such a high powered load
To run, to run, to run
Was all I left me
Appeared as breeze
High in the clouds we'll freeze
To fly, to fly away
Was the lesson

You know the fire it burned her life out
Left me little more
I am a crippled singer
And it evens up the score

The ghost of her
It floats over there
And the smile, the smile
It seems so lonely
She gave me her hand
As I struck up the band
And she seemed to sigh, she seemed to sigh
€˜You're the only
            
Hard to play? Try these video lessons and learn fast. | Correct




comments powered by Disqus
↑ Back to top | Tablatures and chords are parodies/interpretations of the original songs. You may use it for private study, scholarship, research or language learning purposes only