» » »

Jackson C Frank, Marcys Song Tabs (ver.1)

Artists:  A B C D E F G H I J K L M N O P Q R S T U V W X Y Z # 

Marcys Song Tabs (ver.1)

Jackson C Frank Tabs
 Rating:
4.3/5 (6 votes)
Marcys Song lessons Tabs too difficult? Try these video lessons and learn fast
1
                -----------------------------------------------------------------------
                        Marcy's Song - Jackson C Frank

-----------------------------------------------------------------------


Tuning: Drop D (DADGBE)

Intro:
e|---1-------1-------1-------1----|
B|-3--3-3--3--3-3--3--3-3--3--3-3-|
G|--0--0----0--0----2--2----2--2--| x2
D|--------------------------------|
A|--------------------------------|
D|3-------2-------0-------0-------|


Verse:
e|---1-------0-------1-------1----|
B|-1--1-1--1--1-1--3--3-3--3--3-3-|
G|--2--2----0--0----2--2----2--2--| x4
D|3---------------0-------0-------|
A|--------3-----------------------|
D|--------------------------------|

  Well she, she's just a picture
  Who lives on my wall
  Well she, she's just a picture
  And the reason, reason, reason it is so small 


Chorus:
e|---1----1----1----|
B|-1----1----3--3-3-|
G|--2----2----2--2--| x2
D|3----2----0-------|
A|------------------|
D|------------------|

  With a smile so inviting and a body so tall

e|---1-------0-------1-------1----|
B|-1--1-1--1--1-1--3--3-3--3--3-3-|
G|--2--2----0--0----2--2----2--2--| 
D|3---------------0-------0-------|
A|--------3-----------------------|
D|--------------------------------|

  She, she's just a picture

e|---0--------0-------1-------1----|
B|-1--1-1------1-1--3--3-3--3--3-3-|
G|--0--0-----0--0----2--2----2--2--|
D|--------0h2------0-------0-------|
A|3--------------------------------|
D|---------------------------------|

  Just a picture
  That's all


Bridge/Intro:
e|---1-------1-------1-------1----|
B|-3--3-3--3--3-3--3--3-3--3--3-3-|
G|--0--0----0--0----2--2----2--2--| x4
D|--------------------------------|
A|--------------------------------|
D|3-------2-------0-------0-------|


Well you stand there, stand there with the nightshade
Her dripping ripping down your hands
And you ask me, ask me about the lightning
And the lady, lady, lady she understands
It's a dream for the future and the water for the sands
And the strangeness is wandering
Through many callin' lands

I'd give you, give you quite freely
All the clothes on your gipsy bait
And I'd suffer, suffer so long in prison
If I knew you'd have to wait
With the wind scouring sandstone
And the ashes in your grate
Somewhere no devil emperor
The great whale's gone
The holy plate

And this caravan it becomes an alter
And the priests, the priests are big as none
And I'll share, share our time together
Until our time together is done
But your skin it was pretty
And I loved, I loved another one
Now she, she's just like some picture
That has faded in the sun

Well she, she's just a picture
Who lives on my wall
Well she, she's just a picture
And the reason, reason, reason is so small
With a smile so inviting and a body so tall
Well she, she's just a picture
Just a picture
That's all
Just a picture
That's all


************************************

| /   slide up
| \   slide down
| h   hammer-on
| p   pull-off
| ~   vibrato
| +   harmonic
| x   Mute note
| b   Bend
| pb  Pre-bend
| br  Bend release
| pbr Pre-bend release
| brb Bend release bend

************************************
            
Submit corrections

comments powered by Disqus
↑ Back to top | Jackson C Frank Tabs for Marcys Song. Lyrics for acoustic guitar and electric guitar. 1 Tablatures and chords are parodies/interpretations of the original songs. You may use it for private study, scholarship, research or language learning purposes only