» » »

Jackson C Frank, I Want To Be Alone Dialogue Tabs (ver.1)

Artists:  A B C D E F G H I J K L M N O P Q R S T U V W X Y Z # 

I Want To Be Alone Dialogue Tabs (ver.1)

Jackson C Frank Tabs
 Rating:
4.3/5 (6 votes)
I Want To Be Alone Dialogue lessons Tabs too difficult? Try these video lessons and learn fast
1
                Standarn Tuning (EADGBe)
Capo at 6th fret
h = hammer-on

INTRO:
5--------5--------0----5-|3--0-------------0---|-----0--------------0--------|
--1----------1-----------|-------0-h1--------1-|0-h1---1------0-h1-----0--1--|
----2----------2---------|-------------2------0|----------2------------------|
-------------------------|---------------------|3------------3------2------3-|
0-------0----------0----0|0--0-----------0-----|-----------------------------|
-------------------------|---------------------|-----------------------------|

---0------------0--------|---------------------|----0----------0-----------0-|
3------3------------3----|-1-----0-------------|-------0-----------0---------|
------------4-----------4|---------------0-----|----------2------------2-----|
-5-----------------------|-3-----0-------------|-----------------------------|
----------------0--------|---------------3-----|--0--------------------------|
-------------------------|---------------------|-----------------------------|


--------0-----------0-----------|
0-----------0-----------0-------|
----2-----------2-----------2---|
--------------------------------|
--------------------------------|
--------------------------------|

VERSE (there are some variations in this, sometimes):
5---------5----------0--5--|3---0-------------0-------|------0--------0------|
---1---------1-------------|---------0-h1--------1----|0-h1----1----1----1---|
------2---------2----------|----------------2-------2-|----------2---------2-|
---------------------------|--------------------------|3------------3--------|
0---------0---------0--0---|0---0---------------0-----|----------------------|
---------------------------|--------------------------|----------------------|

----0---------------0------|-----0---------------0----|-0---------------0---|
3-------3---------------3--|0-h1------1--------------1|---------0--------0--|
-------------4------------4|---------------2-----2----|------------2------2-|
5--------------------------|3-------------------------|-2-------------------|
-----------------0---------|-------------------0------|-0---------------0---|
---------------------------|--------------------------|---------------------|

-------0---------------0---|-----0---------------0----|-----0-----------0---|
0-h1------1------1-----0--1|-3-------3---------------3|-1-------1-------1---|
--------------2------------|-------------4-----------4|-------------2-----2-|
3--------------3-------2--3|-5------------------------|3--------------------|
---------------------------|----------------0---------|-----------------0---|
---------------------------|--------------------------|---------------------|

---0-----------0-----------0|---------0-----------0-----------|
--------0----------0--------|-0-----------0-----------0-------|
------------2----------2----|-----2-----------2-----------2---|
----------------------------|---------------------------------|
0---------------------------|---------------------------------|
----------------------------|---------------------------------|

OUTRO:
5-----------5-----------0--5|-3---0-----------------0--|------0--------0-----|
----1-----------1-----------|---------0-h1------------1|0-h1----1---0-h1-0-1-|
---------2-----------2------|---------------2---------0|---------------2-----|
----------------------------|--------------------------|-3------3---2---3----|
0---------0-----------0---0-|-0---0-----------0--------|---------------------|
----------------------------|--------------------------|---------------------|

---0---------------0-------|----------------|-----------------|-------------|
-------3---------------3---|1---0-----------|1---0------------|-------------|
-------------4------------4|-----------0----|-----------0-----|-------------|
5--------------------------|3---0-----------|3---0------------|---2---------|
---------------0-----------|-----------3----|------------2----|---0---------|
---------------------------|----------------|-----------------|-------------|
            
Submit corrections

comments powered by Disqus
↑ Back to top | Jackson C Frank Tabs for I Want To Be Alone Dialogue. Lyrics for acoustic guitar and electric guitar. 1 Tablatures and chords are parodies/interpretations of the original songs. You may use it for private study, scholarship, research or language learning purposes only