>
 >
Here Come The Blues

Here Come The Blues Guitar Tabs

Jackson C Frank - Here Come The Blues chords, tabs, tablatures, lyrics

Guitar lessons | Add/correct | Request | Top 50 tabs Artists:  A B C D E F G H I J K L M N O P Q R S T U V W X Y Z 0-9

Here Come The Blues Guitar Tabs – Jackson C Frank

CD, Sheet music, Poster

Do you like Here Come The Blues? Share with your friends now
Tabs
~~~~~~~~~~~~~~~~~~~
Capo: 4th fret
Timing: 12/8
Tempo: 100 bpm
The thumb picking the bass notes also sort of strums the
chords at the same time. Repeats include some variation.


INTRO:
                               E7
12/8 , . . , . . , . . , . .   , . . , . . , . . , . .
||---------0-----------0-----|-----------------0-------|
||-3/5---------5-----5-------|-----------3-------------|
||-4/6-----------6---------0-|-----1-------------------|
||---------------------------|-0h2-------------------2-|
||---------------------------|-------------------------|
||---------------------------|-0-----0-----0-----0-----|

  E7#9                      A7
  , . . , . . , . . , . .   , . . , . . , . . , . .
|-------3p0---------------|-----3-2---------3-------|
|-----3-----3-------0-----|-2---------2-------------|
|-1---------------0-----0-|-----------------------2-|
|-------------------------|-------------------------|
|-------------------2-----|-0-----0-----0-----0-----|
|-0-----0-----0-----------|-------------------------|

  A7                        E7
  , . . , . . , . . , . .   , . . , . . , . . , . .
|-3---2-----------3-------|-----------------0-------|
|-------3---2-------------|-----------3-----0-------|
|-----------------------0-|-0h1-------------------1-|
|-------------------------|-------------------------|
|-0-----0-----0-----0-----|-------------------------|
|-------------------------|-0-----0-----0-----0-----|

  E7#9                      B7add4
  , . . , . . , . . , . .   , . . , . . , . . , . .
|-3p0-------0-------------|-----0-------------------|
|-----3b----0-------------|-------------------------|
|-----------1-------0-----|-------------2---2-------|
|-----------------2-------|-----------1-0h1-1-----1-|
|-------------------------|-0h2---2-----2-----2-----|
|-0-----0-----0-----0-----|-------------------------|

  C7          B7            E7
  , . . , . . , . . , . .   , . . , . . , . . , . .
|-----0-----------------0-|-----------0-------------|
|-------------------------|-----0-----------3-------|
|-3-----3---2-------------|-----2-0h1-------------0-|
|-2-----2---1-----0-0h1---|-------------------------|
|-3-----3-----2-----2-----|-2-----------------------|
|-------------------------|-------0-----0-----0-----|

  A7          E             B7add4      C7
  , . . , . . , . . , . .   , . . , . . , . . , . .
|-3p2-------0-------------|-----0-------0-----------|
|-----3-0h2-0-------------|-----0-------------------|
|-----------------0-----2-|-----------3-----3-----2-|
|-----------------0-----1-|-----------2-----2-----1-|
|-0-----0-----------------|-2-----2-----3-----3-----|
|-------------0-----0-----|-------------------------|

  B7add4
  , . . , . . , . . , . .
|-----0-----------0-------||
|-----0-------------------||
|-----------2-----------0-||
|-------0h1-1-----------0-||
|-2-----2-----2-----2-----||
|-------------------------||

VERSES:
    E7                        E7#9
    , . . , . . , . . , . .   , . . , . . , . . , . .
||--------0---------0-------|-3p2p0-----0-----3-3-----|
||------------3-------------|-------3-----------3-----|
||*-----1-----------------1-|-------------------------|
||*-------------------------|-------------------------|
||--------------------------|-------------------------|
||--0-----0-----0-----0-----|-0-----0-----0-----0-----|
          Monday's shine                    yes  and

  A7             E7
  , . . , . .    , . . , . . , . . , . .
|-------------|----------------0---------|
|-2---2-2-----|--------------------------|
|-2-----2---0-|-h1-----2-----4---4-2-----|
|-2-----2-----|--------------------------|
|-0-----0---0-|-h2-----4-----5-----4-----|
|-------------|--0---0-----0-------0-----|
  Tuesday's     rain

  E7                        A7
  , . . , . . , . . , . .   , . . , . . , . . , . .
|-----0-----------0-------|-----3p2---------3-------|
|-----------3-------------|-----------2-----2-2-----|
|-0h1-------1-------------|-------------------2-----|
|-------------------------|-------------------2-----|
|-------------------------|-0-----0-----0-----0-----|
|-0-----0-----0-----0-----|-------------------------|
              Well the     days they go by baby

  Cadd2                     E7
  , . . , . . , . . , . .   , . . , . . , . . , . .
|-----3-3---0-----0-------|-------------------------|
|-------3-----------3-----|-------------------------|
|-------0-----------0-----|-1----/2-2--/4-4--\2-2---|
|-------------0h2---2-----|-------------------------|
|-3-----3-----3-----3-----|-2----/4---4/5---5\4---4-|
|-------------------------|-0---0-------0-----0-----|
      like a south-bound    train

  E7                        A7
  , . . , . . , . . , . .   , . . , . . , . . , . .
|-----0-----------0-------|-5-----3---------3-------|
|-----------3-------------|-2-----2---2-----2-2-----|
|-0h1-------1-------------|-2-----2---2-------2-----|
|-------------------------|-------------------2-----|
|-------------------------|-0-----0-----0-----0-----|
|-0-----0-----0-----0-----|-------------------------|
               Well it's    funny          thinkin'

  Cadd2                     E7
  , . . , . . , . . , . .   , . . , . . , . . , . .
|-----3-----0-----3-------|-------------------------|
|-----3-------3---3-------|-------------------------|
|-----0-------0-----------|-1-------2---4-------2---|
|-------------------------|-------------------------|
|-3-----3-----3-----3-----|-2-----4---4-5-----4---4-|
|-------------------------|-0---0-------0---0-------|
      you won't ever call   my name

  E7                        E7#9              To Coda
  , . . , . . , . . , . .   , . . , . . , . . , . .
|-----0-----------0-------|-3p2p0-----0-----0-0-----||
|-------0---3-----3-------|-------3---3-------3-----||
|-0h1-------1-----1-----1-|-------1-----------1-----||
|-------------------------|-------------------------||
|-------------------------|-------------------------||
|-0-----0-----0-----0-----|-0-----0-----0-----0-----||
                                          Here comes

  G                                     A7
  , . . , . . , . . , . .   , . . , . . , . . , . .
|-----3-----0-----------3-|-------3---------3-3-----|
|-----3-------3---3-----3-|-----3-3---------2-2-----|
|-----0-------0-----------|-----0-0-----------2-----|
|-------------------------|-------------------2-----|
|-------------------------|-------------0-----0-----|
|-3-----3-----3-----3-----|-3-----3-----------------|
  lone -                              - ly

  Cadd2                     E7
  , . . , . . , . . , . .   , . . , . . , . . , . .
|-----3-----0-------0-----|-------------------------|
|-----3-----------3-3-----|-------------------------|
|-----0-----------0-0-----|-1-----2-----4-------2---|
|-------------0h2---2-----|-------------------------|
|-3-----3-----3-----3-----|-2-----4-----5-----4---4-|
|-----------------------0-|-----0-----0-----0-------|
        here come   the     blues

  E7          B7add4         C7
  , . . , . . , . . , . .6/8 , . . , . .
|-----0-----------0-------|------0-------|
|-----------------0-------|--------------|
|-0h1---1---2-----2-----2-|--3-----3---2-|
|-------2---1-------------|--2-----2---1-|
|-------------2-----2-----|--3-----3-----|
|-0-----0-----------------|--------------|

    B7add4
12/8, . . , . . , . . , . .
|-------0-----------0--------||
|-------0-----------0--------||
|-------------2-----2-------*||
|---------0h1---------------*||
|---2-----2-----2-----2------||
|----------------------------||

CODA:
    G
    , . . , . . , . . , . .   , . . , . . , . . , . .
||------3-----0-----0-----3-|-----------0-----3-------|
||------3-------3---3-----3-|-------3---3-----3-------|
||*-----0-------0-----------|-------0-----------------|
||*-------------------------|-------------------------|
||--------------------------|-------------------------|
||--3-----3-----3-----3-----|-3-----3-----3-----3-----|
    lone -

   A7             Cadd2
6/8, . . , . .12/8, . . , . . , . . , . .
|------3-3------|-----3-----0-----0-------|
|------2-2------|-----3-----3-----3-------|
|--------2------|-----0-----------0-----0-|
|--------2------|-------------0h2-------0-|
|--0-----0------|-3-----3-----3-----3-----|
|---------------|-------------------------|
 - ly                   here come

                            E7
  , . . , . . , . . , . .   , . . , . . , . . , . .
|-----0-----0-----0-------|-------------------------||
|-----3-----3-----3-------|-------------------------||
|-----3-----0-----0-------|-1-----2-----4-------2---||
|-0h2---------------------|-------------------------||
|-3-----3-----3-----3-----|-2-----4-----5-----4---4-||
|-----------------------0-|-----0-----0-----0-------||
                   the      blues

 1.--------------------------------------------------.
  E7                        E7#9
  , . . , . . , . . , . .   , . . , . . , . . , . .
|-----0-----------0-------|-3---0-----0--------------||
|-----------3-----0-------|-----3-3---3--------------||
|-1-----1---1-----------1-|-------1---------1-------*||
|-2-----2-----------------|-------2---------2-------*||
|-------------------------|--------------------------||
|-0-----0-----0-----0-----|-0-----0-----0-----0------||
                                   Here comes
 2.------------------------
  E7
  , . . , . . , . . , . .   , . . , . . , . . , . .
|-------------------------|-------------------------|
|-------------------------|-------------------------|
|-0h1-----2-----4-----2---|-0h1-----2-----4-----2---|
|-------------------------|-------------------------|
|-0h2---4-----5-----4-----|-0h2---4-----5-----4-----|
|-0---0-----0-----0-----0-|-----0-----0-----0-----0-|

  E7
  , . . , . . , . . , . .
|-------------------------||
|------------~3-----------||
|-0h1---------1-----------|| Fine
|-------------0-----------||
|-0h2---------2-----------||
|-------------0-----------||

LYRICS:
Monday's shine yes and Tuesday's rain
Well the days they go by baby like a south-bound train
Well it's funny thinkin' you won't ever call my name
Here comes lonely, here come the blues
Well the words they won't come babe, you know my tongue is cold
There's nothing new, blue lady, that won't get old
Yes a deal has gone down and I'd just better fold
Here comes lonely, here come the blues
You know the sun has run you know she's gone out to hide
Yes and I'm out walkin' where midnight rides
Just me, the good-time Charlies, and the suicides
Here comes lonely, here come the blues
Well Thursday's dry yes and Friday's just the same
Maybe come down blue Monday I will grab the brakes again
'Cos no bottle of pills babe can kill this pain
Here comes lonely, here come the blues
Here comes lonely, here come the blues





Comments


Popular Jackson C Frank tabs & chords
Cover Me With Roses Chords
Relations Chords
Yellow Walls Chords
Blues Run The Game Tabs
I Want To Be Alone Dialogue 1 Tabs
Just Like Anything Tabs
Marcys Song Tabs
Milk And Honey Tabs
My Name Is Carnival Tabs
Tumble In The Wind Ukulele


Song lyrics



↑ Back to top | Tablatures and chords are parodies/interpretations of the original songs. You may use it for private study, scholarship, research or language learning purposes only
© 2014 AZChords.com Contact us | Privacy policy | DMCA | Add/correct tabs | Request tabs | Top 50 tabs