>
 >
Somebody's Baby

Somebody's Baby Guitar Tabs

Jackson Browne - Somebody's Baby chords, tabs, tablatures, lyrics

Guitar lessons | Add/correct | Request | Top 50 tabs Artists:  A B C D E F G H I J K L M N O P Q R S T U V W X Y Z 0-9

Somebody's Baby Guitar Tabs – Jackson Browne

CD, Sheet music, Poster

Do you like Somebody's Baby? Share with your friends now
ChordsTabs
Jackson Browne
Somebody's Baby 

[Intro]
  D          Bm          G           D  A

|-0-2--0--2--0--2--0--2--0--2--0--2--2--0----|
|-3-3--3--3--3--3--3--3--3--3--3--3--3--2----|
|-2-2--2--2--4--4--4--4--0--0--0--0--2--2----|
|-0-0--0--0--4--4--4--4--------------0--2----|
|---------------------------------------0----|
|--------------------------------------------|

   D          Bm              G           D    A
|-----------------------------------------------------|
|-10-10-8--7--5----3/5-7-7--3/5-5/-3-3--3/7-7\-5-5----|
|-11-11-9--7--6----4/6-7-7--4/6-6\-4-4--4/7-7\-6-6----|
|-----------------------------------------------------|
|-----------------------------------------------------|
|-----------------------------------------------------|

[Verse1]
             G                          A                       Bm    A/C# D  
Well, just a look at that girl with the lights comin' up in her eyes
      G                    A         G                  A 
She's got to be somebody's baby, she must be somebody's baby
        G                        A                        Bm  A/C# D  
All the guys on the corner stand back and let her walk on by
      G                    A         G                  A           G   
She's got to be somebody's baby, she must be somebody's baby, she's got to be 
           A             D
somebody's baby she's so fine


[Chorus - Use stumm pattern from intro]
      Bm                  G                D     A          
She's probably somebody's only light gonna shine tonight 
D          Bm                  G         D     A 
Yeah she's probably somebody's baby, all right


[Verse2]
            G                                A                       Bm   A/C# D  
I heard her talkin' with her friend when she thought nobody else was around
               G                    A         G                  A
She said she's got to be somebody's baby, she must be somebody's baby
                G                          A                          Bm  A/C# D    
'Cause when the cars and the signs and the street lights light up the town,
      G                    A         G                  A           G       
She's got to be somebody's baby, she must be somebody's baby, she's got to be 
           A                  D
somebody's baby, she's so....


[Chorus - Use stumm pattern from intro]
      Bm                  G                D     A          
She's probably somebody's only light gonna shine tonight 
D          Bm                  G         D     A 
Yeah she's probably somebody's baby, all right


[Bridge] 
         G                A                      Bm  
I try to shut eyes, but I can't get her outta my sight
           G                     A                 Bm
I know I'm gonna know her, but I gotta get over my fright
              G                        A                   D
Well I'm just gonna walk up to her I'm gonna talk to her tonight


[Interlude]
   D          Bm              G           D    A
|-----------------------------------------------------|
|-10-10-8--7--5----3/5-7-7--3/5-5/-3-3--3/7-7\-5-5----|
|-11-11-9--7--6----4/6-7-7--4/6-6\-4-4--4/7-7\-6-6----|
|-----------------------------------------------------|
|-----------------------------------------------------|
|-----------------------------------------------------|

   D          Bm              G           D    A
|---------------------------------------------------------------|
|-10-10-8--7--5----3/5-7-7--3/5-5/-3-3--3/7-7\-5-8-8-7-5-3------|
|-11-11-9--7--6----4/6-7-7--4/6-6\-4-4--4/7-7\-6-9-9-7-6-4------|
|---------------------------------------------------------------|
|---------------------------------------------------------------|
|---------------------------------------------------------------|

   G             A               G    A   G    A    G    A
|--3-3-3---3--3--5-----5-----|
|--0-0-0---0--0--5-------5---|
|--2-2-0---x--0--2-----------|  X 4 
|--0-0-0---4--0--2-----------|
|--x-x-x---x--x--0-----------|
|--3-3-3---3--3--------------|



[Chorus - Use stumm pattern from intro]
D     Bm                  G                D     A          
She's probably somebody's only light gonna shine tonight 
D          Bm                  G      D     A 
Yeah she's probably somebody's baby tonight
D     Bm                  G                D     A          
She's probably somebody's only light gonna shine tonight 
D          Bm                  G      D     A 
Yeah she's probably somebody's baby tonight


[Then repeat this and Fade]
   D          Bm              G           D    A
|-----------------------------------------------------|
|-10-10-8--7--5----3/5-7-7--3/5-5/-3-3--3/7-7\-5-5----|
|-11-11-9--7--6----4/6-7-7--4/6-6\-4-4--4/7-7\-6-6----|
|-----------------------------------------------------|
|-----------------------------------------------------|
|-----------------------------------------------------|
                              Gonna shine tonight,
                                          make her mine tonight





Comments


Popular Jackson Browne tabs & chords
Love Needs A Heart Chords
Ready Or Not Chords
The Pretender 1 Chords
The Times You've Come Chords
You Love The Thunder Tabs
Call It A Loan Ukulele
In The Shape Of A Heart Ukulele
Just Say Yeah Ukulele
Late Show Ukulele
Ready Or Not Ukulele


Song lyrics



↑ Back to top | Tablatures and chords are parodies/interpretations of the original songs. You may use it for private study, scholarship, research or language learning purposes only
© 2014 AZChords.com Contact us | Privacy policy | DMCA | Add/correct tabs | Request tabs | Top 50 tabs