» » »

Rosie Tabs (ver.1)

Artists:  A B C D E F G H I J K L M N O P Q R S T U V W X Y Z # 

Rosie Tabs (ver.1)

Jackson Browne
Rating:
0/5 (0 votes)

Hard to play? Try these video lessons and learn fast.
                -------------------------------------------------------------------------------
-------------------------------------------------------------------------------

Tuning:EADGBe

Intro/Verse


Well she was...


     E                                 A                  B
e|---0------------------------------|----------------------------------------|
B|---0------------------------------|---------2---------------------4--------|
G|---1------------------------------|---------2---------------------4--------|
D|---2------------------------------|------2-----2---------------4-----4-----|
A|----------------------------------|--0------------------2------------------|
E|---2------------------------------|----------------------------------------|
     standing at...                          When the trucks...


     E                           A     E
e|----------------------------------|----------------------------------------|
B|---0---------------------------2--|--0-------------------------------------|
G|---1---------------------------2--|--1-------------1-----2-----4-----------|
D|---2-----------------------2---2--|--2-------------2-----2-----2-----------|
A|-------------------------------0--|----------------------------------------|
E|---0------------------------------|--0----------------0-----0------0-------|
                                                                  She was...


     A                                 A
e|----------------------------------|----------------------------------------|
B|---2----2-----------2-------------|--3-----------2-----------2-------------|
G|---2--------2-----------2---------|------2-----------2-----------2---------|
D|---2------------2-----------2-----|----------2-----------2-----------------|
A|---0------------------------------|----------------------------------------|
E|----------------------------------|----------------------------------------|
  ...sniffing all around...


     E                                 E
e|----------------------------------|----------------------------------------|
B|---0------------------------------|--0-------------------------------------|
G|---1-----1------------------------|--1-------------1-----2-----4-----------|
D|---2----------4----2--------------|--2-------------2-----2-----2-----------|
A|------------------------4----2----|----------------------------------------|
E|---0------------------------------|--0----------------0-----0------0-------|


     A                                 A
e|----------------------------------|----------------------------------------|
B|---2------------------------------|----------------------------------------|
G|---2------------------------------|----------------------------------------|
D|---2------------------------------|----------------------------------------|
A|---0------------------------------|----------------------------------------|
E|----------------------------------|----------------------------------------|
        She wasn't hard to talk to...


     E                                 C#m
e|-------------------0--------------|-----------------4----------------------|
B|---------------0-------0----------|-----------------5----------------------|
G|-----------1----------------1-----|------------6---------------------------|
D|-------2------------------------2-|-------6--------------------------------|
A|----------------------------------|---4------------------------------------|
E|---0------------------------------|----------------------------------------|
  ...had nowhere to go.


     E                                 A                  B
e|--------------0-------------------|----------------------------------------|
B|--------------0-------------------|---------2---------------------4--------|
G|---------1---------1-------1------|---------2---------------------4--------|
D|------2----------------0----------|------2-----2---------------4-----4-----|
A|----------------------------------|--0------------------2------------------|
E|---2------------------------------|----------------------------------------|
  ...gave her my pass...

     E                           A     E
e|----------------------------------|----------------------------------------|
B|---0---------------------------2--|--0-------------------------------------|
G|---1---------------------------2--|--1-------------1-----2-----4-----------|
D|---2-----------------------2---2--|--2-------------2-----2-----2-----------|
A|-------------------------------0--|----------------------------------------|
E|---0------------------------------|--0----------------0-----0------0-------|

    
Chorus

     A                                 E
e|--------------------0-------------|----------------------------------------|
B|---2--------2-----------2---------|--0-------------------------0-----------|
G|---2------------2-----------2-----|--1--------------1-----2----1-----------|
D|---2------------------------------|--2--------------2-----2----------------|
A|---0------------------------------|--2-------------------------------------|
E|----------------------------------|--0-----------------0-----0-----0-------|
    Rosie you're alright...


     A                                 E
e|--------------------0-------------|----------------------------------------|
B|---2--------2-----------2---------|--0-------------------------0-----------|
G|---2------------2-----------2-----|--1--------------1-----2----1-----------|
D|---2------------------------------|--2--------------2-----2----------------|
A|---0------------------------------|--2-------------------------------------|
E|----------------------------------|--0-----------------0-----0-----0-------|
    When you hold...

     A                                 E
e|--------------------0-------------|----------------------------------------|
B|---2--------2-----------2---------|--0--------------0-----------0----------|
G|---2------------2-----------2-----|--1------------------1-----------1------|
D|---2------------------------------|--2----------------------2--------------|
A|---0------------------------------|--2-------------------------------------|
E|----------------------------------|--0-------------------------------------|
    When you turn out...


     C#m                                 E (using the B as the bass note)
e|---------------4------------------|----------------------------------------|
B|---------------5------------------|------------------0---------------------|
G|-----------6----------------------|-------------1--------------------------|
D|-------6--------------------------|--------2-------------------------------|
A|---4------------------------------|---2------------------------------------|
E|----------------------------------|----------------------------------------|

     A                                 B
e|------------------0---------------|----------------------------------------|
B|------------------2---------------|------4---------------------------------|
G|-------------2---------2-------2--|------4---------------------------------|
D|--------2------------------2------|----4-----------------------------------|
A|---0------------------------------|--2-------------------------------------|
E|----------------------------------|----------------------------------------|
    Looks like it's...                                              Rosie.



Bridge Riff (repeats a few times)

     E                                 E
e|----------------------------------|----------------------------------------|
B|----------------------------------|----------------------------------------|
G|----------1---1-------------------|----------------------------------------|
D|----------2---2---4---2-----------|-----------2----------------------------|
A|------2-------------------4-------|--2---4---------4-----2-----------------|
E|--0-------------------------------|----------------------------------------|



Here are the chords for the whole song.


               E                      A          B            E    A E
well, she was standing at the load in, when the trucks rolled up

         A                                           E     A E
She was sniffing all around like a half-grown female pup

A                                           E               C#m
She wasn't hard to talk to, looked like she had no where to go

      E                           A           B       E     A E
So I gave her a pass so she could get in and see the show

         E                         A         B        E     A E
Well, I sat her down right next to me and I got her a beer

        A                                               E     A E
While I mixed that sound on the stage so the band could hear

A                                            E                    C#m

The more I watched her watch them play, the less I thought of to say

               E                           A          B     E     A E
and when they walked offstage, the drummer swept that girl away


(chorus)

    A           E                    A
but Rosie your alright (you wear my ring)

     A           E                        A
when you hold me tight (Rosie, that's my thing)

      A               E                           C#m   E
when you turn out the lights (I got to hand it to me)

A  (let ring)                             A  E    E B A, E B A
Looks like it's me and you again tonight, Rosie


        E                              A                        E    A  E
Well I guess I might've known from the start, she'd come for a star

         A                                  E      A E
Could've told my imagination not to run too far

A                                            E                    C#m
with all the times that I've been burned, by now you'd think I'd  learned

          E                 A    B       E    E A
that it's who you look like, not who you are

(repeat Chorus)

end with Bridge riff

Rosie          Repeat and fade out
            
Hard to play? Try these video lessons and learn fast. | Correct




comments powered by Disqus
↑ Back to top | Tablatures and chords are parodies/interpretations of the original songs. You may use it for private study, scholarship, research or language learning purposes only