» » »

Love You Save Bass tabs (ver.2)

Artists:  A B C D E F G H I J K L M N O P Q R S T U V W X Y Z # 

Love You Save Bass tabs (ver.2)

Jackson 5
Rating:
0/5 (0 votes)

Tabs too difficult? Try these video lessons and learn fast.
                
-----------------
I am getting on a Jackson 5 kick here. This song hops back and forth alot
between the different sections.There are only three different sections.
There is the intro, chorus and verse.  At the very end, it keeps going back
and forth before the song fades out.

In the intro, which is the home base throughout the song, it is hard to hear
all the notes, but you can tell the bass is hopping around this pattern
which is the mecca of funk bass.
-----------------
   Intro E chord

On your "A" string the 7th fret is the root note, or E.  The 9th frets on your
D string and the G string, are your 5th degree, or B, and your octave, E again,
respectively.  During this you can funk it up however you like, but its all
based around these 5 notes, with the root, "E" being the first note of each bar.
The chromatic run 5-6-7 will end the previous bar and begin the next bar.So,
technically 7 will be the first note in the bar. Use your ear and your feeling.

    Intro
G:--------|--------------------9---|
D:--------|-----------------9------|
A:----5-6-|7----7----7----7--------|
E:--------|------------------------|

-----------------

    Chorus (1x)
G:--------------------------------------------------------------------------------|
D:---------------------------------------------------------2--2-------------------|
A:-------------2-23-3-2--------2--2--3-35-5-3--2--2--5--5------2------3--3--2-----|
E:-3--3--5--5------------5--5-------------------------------------5-3---------5-3-|

     Verse (2x)
G:---------------------------------------------------------|
D:---------------------------------------2-----------------|
A:------2--3---------2-3--4------2--3-5----------3--2------|
E:-3--5-----------5------------------------------------5-3-|

    Chorus (2x)
G:--------------------------------------------------------------------------------|
D:---------------------------------------------------------2--2-------------------|
A:-------------2-23-3-2--------2--2--3-35-5-3--2--2--5--5------2------3--3--2-----|
E:-3--3--5--5------------5--5-------------------------------------5-3---------5-3-|

     Intro [Centered on Funk E Chord (Illustrated above)]
G:--------|--------------------9---|
D:--------|-----------------9------|
A:----5-6-|7----7----7----7--------|
E:--------|------------------------|

     Verse (2x)
G:---------------------------------------------------------|
D:---------------------------------------2-----------------|
A:------2--3---------2-3--4------2--3-5----------3--2------|
E:-3--5-----------5------------------------------------5-3-|

     Chorus (2x)
G:--------------------------------------------------------------------------------|
D:---------------------------------------------------------2--2-------------------|
A:-------------2-23-3-2--------2--2--3-35-5-3--2--2--5--5------2------3--3--2-----|
E:-3--3--5--5------------5--5-------------------------------------5-3---------5-3-|

     "Hold On" Section  (Sounds like the Intro but they shout "Hold On")
G:------9-9--------------9-9------------|
D:--------------------------------------|
A:-------------7--7-------------7--7----|
E:--------------------------------------|

     Chorus (2x)
G:--------------------------------------------------------------------------------|
D:---------------------------------------------------------2--2-------------------|
A:-------------2-23-3-2--------2--2--3-35-5-3--2--2--5--5------2------3--3--2-----|
E:-3--3--5--5------------5--5-------------------------------------5-3---------5-3-|

     Intro [Centered on Funk E Chord (Illustrated above)]
G:--------|--------------------9---|
D:--------|-----------------9------|
A:----5-6-|7----7----7----7--------|
E:--------|------------------------|

     Chorus (1x)
G:--------------------------------------------------------------------------------|
D:---------------------------------------------------------2--2-------------------|
A:-------------2-23-3-2--------2--2--3-35-5-3--2--2--5--5------2------3--3--2-----|
E:-3--3--5--5------------5--5-------------------------------------5-3---------5-3-|

     Intro [Centered on Funk E Chord (Illustrated above)]
G:--------|--------------------9---|
D:--------|-----------------9------|
A:----5-6-|7----7----7----7--------|
E:--------|------------------------|

     Chorus (1x)
G:--------------------------------------------------------------------------------|
D:---------------------------------------------------------2--2-------------------|
A:-------------2-23-3-2--------2--2--3-35-5-3--2--2--5--5------2------3--3--2-----|
E:-3--3--5--5------------5--5-------------------------------------5-3---------5-3-|

     Intro [Centered on Funk E Chord (Illustrated above)]
G:--------|--------------------9---|
D:--------|-----------------9------|
A:----5-6-|7----7----7----7--------|
E:--------|------------------------|

     Chorus  (Fades Out)
G:--------------------------------------------------------------------------------|
D:---------------------------------------------------------2--2-------------------|
A:-------------2-23-3-2--------2--2--3-35-5-3--2--2--5--5------2------3--3--2-----|
E:-3--3--5--5------------5--5-------------------------------------5-3---------5-3-|
            
Tabs too difficult? Try these video lessons and learn fast.




comments powered by Disqus
↑ Back to top | Tablatures and chords are parodies/interpretations of the original songs. You may use it for private study, scholarship, research or language learning purposes only