» » »

Jackson 5, Shake Your Body Bass tabs (ver.1)

Artists:  A B C D E F G H I J K L M N O P Q R S T U V W X Y Z # 

Shake Your Body Bass tabs (ver.1)

Jackson 5 Tabs
 Rating:
3.8/5 (5 votes)
Shake Your Body lessons Tabs too difficult? Try these video lessons and learn fast
1
                g|------------------------------------|
d|-*----------5-5-----3--2--2p0-----*-|
a|-*--------------------------------*-|
e|-----1s3-3-------1------------------|

then, 

g|------------------------------------|
d|----------5-5-----3--7--5-----------|
a|------------------------------------|
e|---1s3-3-------1--------------------|

that's pretty much it, mix it up a little bit n you're good! :]
            
Submit corrections

comments powered by Disqus
↑ Back to top | Jackson 5 Bass for Shake Your Body. Lyrics for acoustic guitar and electric guitar. 1 Tablatures and chords are parodies/interpretations of the original songs. You may use it for private study, scholarship, research or language learning purposes only