» » »

I Want You Back Tabs (ver.3)

Artists:  A B C D E F G H I J K L M N O P Q R S T U V W X Y Z # 

I Want You Back Tabs (ver.3)

Jackson 5
Rating:
0/5 (0 votes)

Hard to play? Try these video lessons and learn fast.
                standard tuning(EADGBe)


Intro/Verse
e-----------------------------------------------------|
B-----------------------------------------------------|
G-----------------------------------------------------|
D-------1-3-----------0-1-2-3-------------------------|
A---1-3-----4---1-3-4---------3-4------6--------------|
E-0-------------------------------4--6---4------------|


Chorus
this part isnt fast at all just find the rythm
e-----------------------------------------------------|
B-----------------------------------------------------|
G-----------------------------------------------------|
D--6-5------------------------------------------------|
A------8-6-------6---8--4------6----------------------|
E----------9-8-6---8------4--6---4--------------------|

well thats about it this tab follows the bass line
through the song the chords are just a g# I think i
100% sure of this tab. i played it in a concert so
it is correct have fun with it
            
Hard to play? Try these video lessons and learn fast. | Correct




comments powered by Disqus
↑ Back to top | Tablatures and chords are parodies/interpretations of the original songs. You may use it for private study, scholarship, research or language learning purposes only