» » »

I'll Be There Tabs (ver.1)

Artists:  A B C D E F G H I J K L M N O P Q R S T U V W X Y Z # 

I'll Be There Tabs (ver.1)

Jackson 5
Rating:
0/5 (0 votes)

Hard to play? Try these video lessons and learn fast.
                Tuning: Standard(EADGBe)

This is my first tab. I play this out by ear and it sounds right but I'm not 100% sure
it.


Intro:

|----------------------------------------------------|
|-10-11-10----11-13----------------------------------|
|----------------------12-12---10-12-10---12-14---9-9|
|----------------------------------------------------|
|----------------------------------------------------|
|----------------------------------------------------|

|--------------------------------------------------------|just continue 10s
|---------11-10------------------------------------------|to start of next
|-------10------------10-10-10-10-etc--------------------|intro or until
|-10/12------------12------------------------------------|the chords.
|--------------------------------------------------------|
|--------------------------------------------------------|

You can continue to play this everytime it comes up, but after I play it this way the
time so everybody definetly knows what song it is I prefer to switch it up a little and
it a little solo each time I play it by changing up the tempo and adding double, triple, 
even quadruple notes in some places as well as hammer-ons, pull offs and slides:

|-------------------------------------------------------------------|
|-10-11-10-11-11-13--13p11------------------------------------------|
|-------------------------12--10/12-10-12-14-14-14/12-12/10-10p9-9-9|
|-------------------------------------------------------------------|
|-------------------------------------------------------------------|
|-------------------------------------------------------------------|

|--------------------------------------------------------|
|---------11-10-10h11p10-10h11p10------------------------|
|-------10-----------------------10----10-10-10-etc------|
|-10/12------------------------------12------------------|
|--------------------------------------------------------|
|--------------------------------------------------------|

This is just how I do it, you can play it however you want as long as it fits.

Chords:

Capo-> 1st Fret

C5                      G
I'll be there to comfort you

        D                                  A
Build my world of dreams around you, I'm so glad that I found you

C5                      G
I'll be there with a love that's stong

         D                     A
I'll be your strength, I'll keep holding on

Repeat all until the end.


Well thats what I got. Good luck. Listen to the song to get the rythem and don't judge
harshly please.
            
Hard to play? Try these video lessons and learn fast. | Correct




comments powered by Disqus
↑ Back to top | Tablatures and chords are parodies/interpretations of the original songs. You may use it for private study, scholarship, research or language learning purposes only