» » »

Jackson 5, I'll Be There Bass tabs (ver.1)

Artists:  A B C D E F G H I J K L M N O P Q R S T U V W X Y Z # 

I'll Be There Bass tabs (ver.1)

Jackson 5 Tabs
 Rating:
4/5 (4 votes)
I'll Be There lessons Tabs too difficult? Try these video lessons and learn fast
1
                

    F      Am/E     Dm       C       Bb       Bb/C       F

G:-5/10---|-9------|-7-----|--------|--10/12-|--------|--10-9--|-7-----------|
D:--------|--------|---10/-|-7------|-8------|-10-----|--------|---10-8-7----|
A:--------|--------|-------|--------|--------|--------|--------|----------10-|
E:--------|--------|-------|--------|--------|--------|--------|-------------|

    F      Am/E     Dm       C        Bb       Bb/C         F

G:--------|--------|-------|---------|--------|------------|-----------|-------------|
D:--3---3-|-2----2-|-0-----|------2--|----5-5-|----------5-|-3-3-3-3-3-|---------3-5-|
A:--------|--------|---3-1-|-0-0-0-0-|-1-1----|-3-3-3-3-0--|--------3--|------3-5---5|
E:--------|--------|-------|---------|--------|------------|-----------|-1-3-5-------|

  Ab         Eb  Bb  Bb/C

G:-----------------------------------    G:---5/10-10-10-5/10---
D:-6-6-6-6-6-------------------3-----    D:-3-------------------
A:-----------3-6-6-6---------5-------    A:---------------------
E:-------------------3-6-6-6---------    E:---------------------
   F           Am/E        Dm        C           Bb        Bb/C         F

G:------------|-----------|---------|---2-------|--------|-------5-5--|-5/10--9---|-7-----------|
D:--3-3-3-3-3-|-2-3-5-3-2-|-0-0-----|----0------|----3/5-|-5----------|-----------|---10-8-7----|
A:------------|-----------|-----3-1-|-0---3-1-0-|-1-1----|---3-3------|-----------|----------10-|
E:------------|-----------|---------|-----------|--------|------------|-----------|-------------|

  F              Am/E        Dm            C            Bb       Bb/C        
  F

G:-------------|-----------|-------------|--2-0-------|--------|-------5-5--|-----------|-------------|
D:--3-3-3--0-3-|-2-3-5-3-2-|-0-0---------|------2-----|----5-5-|------------|-3-3-3-3-3-|---------3-5-|
A:--------3----|-----------|-----3-0-3-1-|-0------3-0-|-1-1----|-3-3-0------|--------3--|------3-5---5|
E:-------------|-----------|-------------|------------|--------|------------|-----------|-1-3-5-------|

Ab         Eb  Bb  Bb/C

G:-----------------------------------    G:---5/10-10-10-5/10---
D:-6-6-6-6-6-------------------3-----    D:-3-------------------
A:-----------3-6-6-6---------5-------    A:---------------------
E:-------------------3-6-6-6---------    E:---------------------

F              Am/E        Dm             C         Bb           Bb/C        
  F

G:-------------|-----------|-----------2-|---------|------------|-------5-5--|-5/10--9-7-|-----------------|
D:--3-3-3--0-3-|-2-3-5---2-|-0-0---------|-2-------|------5-5-5-|------------|-----------|-10-7------------|
A:--------3----|-----------|-----3-1-0---|---3-0---|-----8------|------------|-----------|--------10-8-----|
E:-------------|-----------|-------------|---------|-6-6--------|-8-8-6------|-----------|------------10-8-|

F                Am/E        Dm         C           Bb           Bb/C      F

G:-------------|-----------|----------|-----------|------------|-----5-5-|-5/10-9-7-|-----------7-10-7----------|
D:--3-3-3--0-3-|-2-3-5-3-2-|-0-0------|-----------|-----3/5-5--|---5-----|----------|-10-7-10-10-------10-7-----|
A:--------3----|-----------|-----3-1--|-0-0-0-0-0-|-1-1--------|-3-------|----------|----------------------10-8-|
E:-------------|-----------|----------|-----------|------------|---------|----------|---------------------------|

F                Am/E        Dm         C           Bb           Bb/C      F

G:-------------|-----------|--------2-|-----------|------------|-----5-5-|-5/10-9-7-|------------7---------|
D:--3-3-3--0-3-|-2-3-5-3-2-|-0-0------|-----------|-----3/5-5--|---5-----|----------|-10-7-10-10-----------|
A:--------3----|-----------|-----3----|-0-0-0-0-0-|-1-1--------|-3-------|----------|--------x-x-x-x-x-x-x-|
E:-------------|-----------|-------5--|-----------|------------|---------|----------|----------------------|

more jackson 5 tabs please
            
Submit corrections

comments powered by Disqus
↑ Back to top | Jackson 5 Bass for I'll Be There. Lyrics for acoustic guitar and electric guitar. 1 Tablatures and chords are parodies/interpretations of the original songs. You may use it for private study, scholarship, research or language learning purposes only