>
 >
Darling Dear

Darling Dear Bass Tabs

Jackson 5 - Darling Dear chords, tabs, tablatures, lyrics

Guitar lessons | Add/correct | Request | Top 50 tabs Artists:  A B C D E F G H I J K L M N O P Q R S T U V W X Y Z 0-9

Darling Dear Bass Tabs – Jackson 5

CD, Sheet music, Poster

Do you like Darling Dear? Share with your friends now
Bass TabsChordsUkulele
Pista 1
                >                                                   
     S S S S    E  Q.     Q    S S S S    Q    E.  S E.  S S S S S  
G||----------|-------------------------|---------------------------|
D||----0-1-2-|--3----------------3-2-1-|--0----L---0-L---0-L-0-1-2-|
A||----------|-------------------------|---------------------------|
E||----------|-----1------L----L-------|---------------------------|


  >                                                    
  E  Q.     Q    S S S S    Q    E.  S S E  S S S S S  
-------------------------|----------------------------|
--3----------------3-2-1-|--0----L---0-L-0--0-0-0-1-2-|
-------------------------|----------------------------|
-----1------L----L-------|----------------------------|


  >                                                     >                       
  E  Q.     Q    S S S S    Q    E.  S E.  S S S S S    E  Q.     Q    S S S S  
-------------------------|---------------------------|-------------------------|
--3----------------3-2-1-|--0----L---0-L---0-L-0-1-2-|--3----------------0-1-2-|
-------------------------|---------------------------|-----1------L----L-------|
-----1------L----L-------|---------------------------|-------------------------|


  >                         >                         >                       
  E  Q.     Q    S S S S    E  Q.     Q    S S S S    E  Q.     E  S S E  E   
-------------------------|-------------------------|-------------------------|
--3----------------0-1-2-|--3----------------3-2-1-|--0--0------L--0-L-0-----|
-----1------L----L-------|-------------------------|----------------------5--|
-------------------------|-----1------L----L-------|-------------------------|


  E  Q.     E.  S S E  S    E  E  S E  S E  E  S E  S  
-------------------------|----------------------------|
-------------------------|----------------------------|
--3--3------L---3-L-3--0-|--1--1--L-1--1-3--3--L-3--3-|
-------------------------|----------------------------|


  E  E  S E  S S S S S S S S S    E  E  S S S S S S E  E  E   
-------------------------------|-----------------------------|
--0--0--L-0--0-----------------|-----------------------------|
---------------4-4-4-4-L-0-1-2-|--3--3--L-1---1-3-1----3-----|
-------------------------------|------------3-------3-----0--|


  S S S S S E  S S S S S E  S S    S S S S E  S S S E  S S E.   
----------------------------0-2-|--3-3-3-3-------------0-------|
-------------------0-1-2-3------|----------0--0-1-L-2----3-----|
------1-0-L-1--3-L--------------|--------------------------0---|
--1-1---------------------------|------------------------------|


  E  E  S E  S S S S S S S S S    E  E  E.  S E  S S E  E   
-------------------------------|---------------------------|
-----0--L-1--2-3---------------|---------------------------|
--1--------------0-1-0-1-0-1-2-|--3--3--L---1----1-2-3--4--|
-------------------------------|--------------3------------|


  E  E  E  S S S S S S E  S S    E  E  S S S S E  E  S S S S  
------------------------------|----------0-------------0---0-|
--0--0--L--0-----0-----0------|------------1-2-3--3--L---3---|
-------------0-L---3-4----1-2-|--3--3--L---------------------|
------------------------------|------------------------------|


  S E.  S S E  S E  S S S E     E  E  S E  S S E  S E  E   
--3-3-----3----2-2------2----|--0--0----------------------|
--------3---3-------0-L---0--|--------0-0-----------------|
-----------------------------|-------------1-L-0-------0--|
-----------------------------|--------------------2-3-----|


  E  Q    S S E  S S S S E     E  E  E  S S S S E  E  S S  
----------1-2-L--5-6-7-x-5--|--5--0-----0-----------------|
--0--0----------------------|--------1--------------------|
----------------------------|-------------3-L-1----3----0-|
----------------------------|-------------------3-----1---|


  E  E  E  S S S E  S E  E     E  Q.     S E  S S S S S  
----------------------------|---------------------------|
-------------0-L-0--0-1--2--|--3-----------3--3-L-2-1-1-|
--1--1--L--1----------------|---------------------------|
----------------------------|-----1------L--------------|


  E  Q    S S S S S S E  E     E.  S E  S S S S S S E  E   
----------------------------|-----------------------------|
--0--0----0-----0-----0-----|-----------------------------|
------------0-L---3-4----2--|--3---0----1-3-L-----3----0--|
----------------------------|--------3--------2-3---1-----|


  E  E  E.  S S S E  E  E     E  E  E.  S E  S S S S S S  
------------3---3----------|-----------------------------|
--------------0---0--1--2--|--3--3--L--------3-3-L-1-0---|
--1--1--L------------------|------------3--------------1-|
---------------------------|--------------1--------------|


  E  E  S S S S E  S S E  E     S S E  S E  S E  S S E  S S  
-----------------------------|--------------------------0---|
-----------------------------|----3--------------1-2-3----3-|
--3--3--L----------1-2-3-----|------0--L-1--2-3-------------|
----------0-1-2-3---------0--|--1---------------------------|


  E  Q    E  S E  S E  E     S S S S S E  S S S S S E  E   
--3--3------------0-------|-------------------------------|
----------0--L-1----3-----|----------0-0--1-L-2-3---------|
-----------------------0--|--1-1-1-1--------------0-1--2--|
--------------------------|-------------------------------|


  E  Q    S S E  S S E  E     E  E  S E  S E  S S E  S S  
---------------------------|-----------------------------|
---------------------------|--0--0--L-------------0------|
--3--3-----------1-2-3--4--|---------------0--3-4----1-2-|
----------1-2-3------------|----------1--3---------------|


  S S E  S S S S S S E  S S S S    S E.  S E  S S E  S S S S S  
--------------------------------|------------------------------|
--------------------------------|------------------------------|
--3-0-3--L-3----------------1---|--1-1-----1--0-L-0------0---0-|
-------------0-1-L-0-1--L-3---3-|--------1-----------1-L---3---|


  S E  S S E  S S E  S S S S S    S S E  S E  S S S E  E  E   
-----------------------0---5-6-|--7-6-7--L-2--5-7-2-------7--|
--------------0-L-3--4---0-----|--------------------1--0-----|
----0--1-L-3-------------------|-----------------------------|
--3----------------------------|-----------------------------|


  E  E  S E  S S E  S E  E     E  E  S E  S S E  S E  E   
--8--8--L-0------0----------|----------------------------|
-------------1-L----1-------|--------0-0--0-1-1--1-2--0--|
----------------------3--2--|--1--1----------------------|
----------------------------|----------------------------|


  E  E  E.  S S E  S S S S S    E  Q    S S S E  S E  E   
-----------------------------|----------1-2-L------------|
--3----------------0-3-2-2-1-|--0--0---------------0-----|
------------0-L-3------------|----------------0--4----1--|
-----1--L--------------------|---------------------------|


  E  E  S E  S E  S S S S S S    E  E  E.  S S S E  E  E   
------------------------------|------------3---3----------|
------------------------------|--------------0---0--1--2--|
--3--3--L---------1-2-3-----0-|--1--1--L------------------|
----------1--2-3--------0-1---|---------------------------|


  E  E  E.  S E  S S S S S S    E.  S S E  S S E  S S S S S  
-----------------------------|------0-5-3--0-L--------------|
--3--3--L--------3-3-L-1-0---|-----------------1------0-1-2-|
------------3--------------1-|--3-----------------3-L-------|
--------------1--------------|------------------------------|


  S S S S S E  S S E  S E  E     E  Q    S S S E  S E  S S  
------------------------------|----------3-------------0---|
--3---------------------------|------------0-L-1--2-3----3-|
----0-1-0-1-2--3-L---------0--|--1--1----------------------|
-------------------0--0-1-----|----------------------------|


  S E  S S E  S S S S S E  E     E  E  E.  S E  S S E  E   
--3---------------------------|---------------------------|
---------0-0--1-L-2-3---------|---------------------------|
----1--1--------------0-1--2--|--3--3--L---1----1-2-3--4--|
------------------------------|--------------3------------|


  E  Q    S S S S S S E  S S    S S E  S S S S E  E  S S S S  
-----------------------------|-----------0-------------0---0-|
--0--0----0-----0---x-0------|-------------1-2-3--3--L---3---|
------------0-L---4------1-2-|--3-1-3--L---------------------|
-----------------------------|-------------------------------|


  S E  S S E.  S E  S S S E     S E  S S E  S S S E  S S S S  
--3-3------3---2-2------2----|--0----------------------------|
-------3-L----------0-L---0--|----0--------------------------|
-----------------------------|-------1-L-0-------------------|
-----------------------------|--------------3-L-1-3--1-3-1-3-|


  Q.     S S E  S S S S S S    S E  S S E  S S E  S S S S S  
----------------------------|-----------------------0---0-2-|
----------------------------|--------------0-L-3--4---3-----|
--1------1-0-L--0-----0---0-|----0--1-L-3-------------------|
------------------1-L---1---|--3----------------------------|


  E  E  S S S S S E  S S S E     Q    S E  S S E  S S S S S  
--3--3--L---3-2-L-2------2----|--0--------------------------|
----------3----------0-L---0--|-------0-0-------------------|
------------------------------|------------1-L-0----------0-|
------------------------------|-------------------3-L-1-3---|


  E  E  S S E  S E  S S S S S    S E  S S E  S S E  S S S S S  
------------------------------|-----------------------0---0-2-|
------------------------------|--------------0-L-3--4---3-----|
--1--1--L-1----0-0------0---0-|----0--1-L-3-------------------|
------------1-------1-L---1---|--3----------------------------|


  E  E  S S S S E  S S S S E          
--3--3----3---2-L--2-----2----|-----||
--------3---3--------0-L---0--|-----||
------------------------------|-----||
------------------------------|-----||





Comments


Popular Jackson 5 tabs & chords
All The Things You Are 1 Bass Tabs
I Want You Back Bass Tabs
Abc Chords
Abc 1 Chords
Mama's Pearl Chords
Never Can Say Goodbye Chords
Who's Lovin' You Chords
Abc Ukulele
Shake Your Body Ukulele
Whos Lovin You Ukulele


Song lyrics



↑ Back to top | Tablatures and chords are parodies/interpretations of the original songs. You may use it for private study, scholarship, research or language learning purposes only
© 2014 AZChords.com Contact us | Privacy policy | DMCA | Add/correct tabs | Request tabs | Top 50 tabs