» » »

All The Things You Are Bass tabs (ver.1)

Artists:  A B C D E F G H I J K L M N O P Q R S T U V W X Y Z # 

All The Things You Are Bass tabs (ver.1)

Jackson 5
Rating:
0/5 (0 votes)

Hard to play? Try these video lessons and learn fast.
                "(1)
Bass fig 1
G----------------------------------------------------------------------|   
D----------------------------------------------------------------------|     
A----------5-----7--------8------------------------7------5------4--|       
E---3--------------------------3-----------3--------------------------|         
   |                     |                    |                   |                   |                                      bass fig 1
--5--------------------------5-------------5------------------------------------------------------------|

chorus:play faster
----------5-----7--------8------------------7------5------4------------------------------------------|
----3--------------------------3----3------------------------------------------------------------------|
  |                     |                     |                    |                   |
-----5--------------------------5---5--------------------------------------------------------------------|
after chorus
----------5-----7--------8-8-8-------------------7------5------4--------------------------------------|
---3-3---------------------------------3-3-3------------------------------------------------------------|
"            
Hard to play? Try these video lessons and learn fast. | Correct




comments powered by Disqus
↑ Back to top | Tablatures and chords are parodies/interpretations of the original songs. You may use it for private study, scholarship, research or language learning purposes only