>
 >
Blinders

Blinders Guitar Tabs

Jackson - Blinders chords, tabs, tablatures, lyrics

Guitar lessons | Add/correct | Request | Top 50 tabs Artists:  A B C D E F G H I J K L M N O P Q R S T U V W X Y Z 0-9

Blinders Guitar Tabs – Jackson

CD, Sheet music, Poster

Do you like Blinders? Share with your friends now
Tabs
Tuning : Normal

--------------------------


Intro
E--------------------------7~----------
B-------------------------7~-----------
G------------------------7~------------
D-----------------------9~-------------
A----------------------9~--------------
E-2~--2-4-5-4~--4-5-7-7~-----4-5-7-7~--

E--7~-7~-----------------------------
B--7~-7~-----------------------------
G--7~-9~--11-11-9-9------------------
D--9~-9~---x--x-x-x------------------
A--9~-7~---9--9-7-7------------------
E--7~-------------------------------- 

E--------------------------------------
B--------------------------------------
G-7h9------------7-9-------------------
D-----7-0-11-9-7-----7-0-11-11-9-7h9---x4
A--------------------------------------
E-------------------------------------- 

Verse(or is it just bass?...eh)
E---------------------------------------
B---------------------------------------
G-7--7-7--7-7--7--7---------------------
D-7--7-7--7-7--7--7--7--7-7--7-7--7---7-
A-5--5-5--5-5--5--5--7--7-7--7-7--7---7-
E--------------------5--5-5--5-5--5---5-

in verse 2 there's also
G-2-2-2-2-2-2-2-2-2-2etc.--
palm muted

Chorus
E---------------------------------------
B---------------------------------------
G----------------------4------7----9----
D-4-------------2------4-etc.-7etc.9etc.
A-4-etc.-4-etc.-2-etc.-2------5----7----
E-2------1------0-----------------------

Outro
E--------------------------------------
B--------------------------------------
G-7h9------------7-9-------------------
D-----7-0-11-9-7-----7-0-11-11-9-7h9---
A--------------------------------------
E-------------------------------------- 

E--------------------------------------
B--------------------------------------
G---------------------------------6----
D-----6-7-9------6-7-9------6-7-9------
A-7h9--------7h9--------7h9------------
E--------------------------------------

keys,

h=hammer on
~=let ring


Have fun!





Comments


Popular Jackson tabs & chords
All The Way 1 Bass Tabs
All The Way Tabs
Far From Here Tabs
Fell Into Tabs
Here Comes Hollow Tabs
Here Comes Hollow 1 Tabs
Shes Giving In Tabs


Song lyrics



↑ Back to top | Tablatures and chords are parodies/interpretations of the original songs. You may use it for private study, scholarship, research or language learning purposes only
© 2014 AZChords.com Contact us | Privacy policy | DMCA | Add/correct tabs | Request tabs | Top 50 tabs