» » »

Jacks Mannequin, Restless Dream Tabs (ver.1)

Artists:  A B C D E F G H I J K L M N O P Q R S T U V W X Y Z # 

Restless Dream Tabs (ver.1)

Jacks Mannequin Tabs
 Rating:
4/5 (4 votes)
Restless Dream lessons Tabs too difficult? Try these video lessons and learn fast
                -------------------------------------------------------------------------------
                     Jack's Mannequin - Restless Dream
-------------------------------------------------------------------------------


Intro:
     G             C     Cadd9   G
e|-----------0---------------------------------------------------------------|
B|---3-------------1-------3-----0-------0-----0-------0---------------------|
G|-------0-------0-----0-------0-----0-------0-----0-------0-----------------|
D|-----0-------0-----2-------2-----0-------0-----0-------0-------------------|
A|---2-----2-------3-----3---------------------------------------------------|
E|-------------------------------3-----3-------3-----3-----------------------|

     Em            D/F#          G
e|---------------------------------------------------------------------------|
B|-----------0---------------------------------------------------------------|
G|---0-------------2-------0-----0-------0-----0-------0---------------------|
D|-------2-------2-----0-------0-----0-------0-----0-------0-----------------|
A|-----2-------2-----0-------0-----2-------2-----2-------2-------------------|
E|---0-----0-------2-----2-------3-----3-------3-----3-----------------------|

Verse:
     G             C     Cadd9   G
e|-----------0---------------------------------------------------------------|
B|---3-------------1-------3-----0-------0-----0-------0---------------------|
G|-------0-------0-----0-------0-----0-------0-----0-------0-----------------|
D|-----0-------0-----2-------2-----0-------0-----0-------0-------------------|
A|---2-----2-------3-----3---------------------------------------------------|
E|-------------------------------3-----3-------3-----3-----------------------|

     Em            D/F#          G
e|---------------------------------------------------------------------------|
B|-----------0-------------3-----0-------0-----0-------0---------------------|
G|---0-------------2-----------------0-------0-----0-------0-----------------|
D|-------2-------2-----0-------0---0-------0-----0-------0-------------------|
A|-----2-------2-----0-------0-----------------------------------------------|
E|---0-----0-------2-----2-------3-----3-------3-----3-----------------------|

     G             C     Cadd9   G
e|-----------0---------------------------------------------------------------|
B|---3-------------1-------3-----0-------0-----0-------0---------------------|
G|-------0-------0-----0-------0-----0-------0-----0-------0-----------------|
D|-----0-------0-----2-------2-----0-------0-----0-------0-------------------|
A|---2-----2-------3-----3---------------------------------------------------|
E|-------------------------------3-----3-------3-----3-----------------------|

     Em            D/F#          G
e|---------------------------------------------------------------------------|
B|-----------0---------------------------------------------------------------|
G|---0-------------2-------0-----0-------0-----0-----------------------------|
D|-------2-------2-----0-------0-----0-------0-------------------------------|
A|-----2-------2-----0-------0-----2-------2-------0-2-----------------------|
E|---0-----0-------2-----2-------3-----3-------3-3---------------------------|


Chorus:
     c             Em            D/F#          G
e|---------------------------------------------------------------------------|
B|---1-------1-----0-------0-------------------------------------------------|
G|-------0-------0-----0-------0-2-------0-----0-------0---------------------|
D|-----2-------2-----2-------2-------0-------0-----0-------0-----------------|
A|---3-----3-------2-----2---------0-------0-----2-------2-------------------|
E|-------------------------------2-----2-------3-----3-----------------------|

     C             G             Em            D
e|---------------------------------------0-----2-------2---------------------|
B|---1-------1-----0-------0-----0-----------------2-------2-----------------|
G|-------0-------0-----0-------0-----0-------0---3-------3-------------------|
D|-----2-------2-----0-------0-----2-------2---0-----0-----------------------|
A|---3-----3-----------------------------------------------------------------|
E|-----------------3-----3-------0-----0-------------------------------------|

     C             Em            D/F#          G
e|---------------------------------------------------------------------------|
B|---1-------1-----0-------0-------------------------------------------------|
G|-------0-------0-----0-------0-2-------0-----0-------0---------------------|
D|-----2-------2-----2-------2-------0-------0-----0-------0-----------------|
A|---3-----3-------2-----2---------0-------0-----2-------2-------------------|
E|-------------------------------2-----2-------3-----3-----------------------|

     C             G             Em            G               C~    D~
e|-------------------------------0--------0----3-------------|---------------|
B|---1-------1-----3-------3---------------------------3-----|-1~--0-2~------|
G|-------0-------0-----0-------0-----0-------0-----0-------0-|-0~----3~--0---|
D|-----2-------2-----0-------0-----2-------2-----0-------0---|-------0~------|
A|---3-----3-------------------------------------------------|-3~------------|
E|-----------------3-----3-------0-----0-------3-----3-------|---------------|

Bridge:
           C             G             D             G
e|-------|-----------------------------2-------2-----3-------3---------------|
B|-------|-1-------1-----3-------3---------2-------2-----3-------3-----------|
G|-------|-----0-------0-----0-------0---3-------3-----0-------0-------------|
D|-------|---2-------2-----0-------0---0-----0-------------------------------|
A|---0-2-|-3-----3-------2-----2---------------------------------------------|
E|-3-----|-------------------------------------------3-----3-----------------|

         D/F#  G    C       D
e|---0~----------------------------------------------------------------------|
B|--------3~--------1~----0-2~-----------------------------------------------|
G|---0~---2~---0~---0~------3~--0--------------------------------------------|
D|-------------0~-----------0~-----------------------------------------------|
A|------------------3~-------------------------------------------------------|
E|---0~---2~---3~------------------------------------------------------------|



ORDER OF SONG:

Intro
Verse
Chorus
Intro
Verse
Chorus
Intro
Bridge
Verse x 2
Chorus
Verse (End on G)
            
Submit corrections

comments powered by Disqus
↑ Back to top | Jacks Mannequin Tabs for Restless Dream. Lyrics for acoustic guitar and electric guitar. Tablatures and chords are parodies/interpretations of the original songs. You may use it for private study, scholarship, research or language learning purposes only