» » »

Meet Me At My Window Tabs (ver.1)

Artists:  A B C D E F G H I J K L M N O P Q R S T U V W X Y Z # 

Meet Me At My Window Tabs (ver.1)

Jacks Mannequin
Rating:
5/5 (2 votes)

Hard to play? Try these video lessons and learn fast.
                Meet Me At My Window - Jack's Mannequin
-------------------------------------------------------------------------------

Tuning: Standard


Intro transcribed from piano
e|--------------------------------------------------------------------------------------|
B|----0----------0---0---0---------2---2---1------------------5--4----------------------|
G|-------3------------------2-----------------2---0--2--0-----------4-------------------|
D|-----------4------------------2-------------------------------------------------------|
A|--------------------------------------------------------------------------------------|
E|--------------------------------------------------------------------------------------|

e|---------------------------------------------------------------------------------|
B|---5---4------5--4---------------------------------------------------------------|
G|----------4----------------------------------------------------------------------|
D|---------------------------------------------------------------------------------|
A|---------------------------------------------------------------------------------|
E|---------------------------------------------------------------------------------|


                                                                                         
  F#            A
Meet me at my window  At my window
                E
I could use a hero right now
 B                        F#
You could use someone to save
             A
Someone like me
                     E
Someone who's not brave
                     B
Someone who's not free
               F#
Meet me at my window

        A        E          F#
With the darkness, cometing down
         A         E     F#
I could use your, saving now
               A
Meet me at my window
               E
Meet me at my window
        B
I will wait for you there
        F#
I will talk to you, no
             A   E    F#
When there's no one, around

Come on, you could change me
You could steal me
You could turn all the lights on
And show me the real me
Then maybe, if I'm lucky
You'll offer me protection
You could even heal me
Just meet me at my window

With the darkness, cometing down
I could use your, saving now
Meet me at my window
Meet me at my window
I will wait for you there
I will talk to you, no
When there's no one, around

So meet me at my
Meet me at my window
At my window
Meet me at my window
My window, right now

With the darkness, cometing down
I could use your, saving now
Meet me at my window
Meet me at my window
I will wait for you there
I will talk to you, no
When there's no one, no one around
When there's no one, no one around
When there's no one, no one
When there's no one, around
            
Hard to play? Try these video lessons and learn fast. | Correct




comments powered by Disqus
↑ Back to top | Tablatures and chords are parodies/interpretations of the original songs. You may use it for private study, scholarship, research or language learning purposes only