» » »

Jacks Mannequin, Holiday From Real Bass tabs (ver.1)

Artists:  A B C D E F G H I J K L M N O P Q R S T U V W X Y Z # 

Holiday From Real Bass tabs (ver.1)

Jacks Mannequin Tabs
 Rating:
4.2/5 (5 votes)
Holiday From Real lessons Tabs too difficult? Try these video lessons and learn fast
1
                G|------------------------------------------------------------------------|
D|------------10-9----------15-15-15-14-12--------------------------------|
A|--7/12-10-8------12-10-8-----------------12-10-8/17-15-14-12-10-8-------|
D|------------------------------------------------------------------------|

G|------------------------------------------------------------------------|
D|------------------------------------------------------------------------|
A|------------------------------------------------------------------------|
D|--7777-5555-3333--10-10-10-9-7777-5555-0000-3333-5555-7777--------------|

G|------------------------------------------------------------------------|
D|------------------------------------------------------------------------|
A|------------------------------------------------------------------------|
D|-33333333/15-15-15-15-15-17-15-12-10-9-7-5-3-2-5/17-15/17-17/19-17-12---|

G|------------------------------------------------------------------------|
D|------------------------------------------------------------------------|
A|------------------------------------------------------------------------|
D|-10-9-7-5-3-2-5/15-13/15-15-17-15-15------------------------------------|

G|--------------------------------------------------------------------------|
D|---------10/12/10-9----14-------------------------------------------------|
A|-12-10-8------------12----10-8-8-10-12-9-12-10-8/17-15-14-12-10-8---------|
D|--------------------------------------------------------------------------|

G|-------------------------------------------------------------------------|
D|-15151515-14-12----------------------------------------------------------|
A|-------------------------------------------------------------------------|
D|----------------7777-5555-3333--10-10-10-9-7777-5555-0000-3333-5555-7777-|

G|--------------------------------------------------------------------------|
D|--------------------------------------------------------------------------|
A|--------------------------------------------------------------------------|
D|-33333333/15-15-15-15-17-17-17-17-10-9-7-5-3-2-5-5/17-15/17-17/19-17-12---|

G|-----------------------------------------------------------------------|
D|-----------------------------------------------------------------------|
A|-----------------------------------------------------------------------|
D|-10-9-7-5-3-2-5/15-15-15-15-15-15--------------------------------------|

G|-------------------------------------------------------------------------|
D|-------------------------------------------------------------------------|
A|-3/13/15-10-11-12-14-10-10/12-10-3-3/12-14-15-17-12-14-15-10-10-8~-------|
D|-------------------------------------------------------------------------|

G|-----------------------------------------------------------------------|
D|-----------------------------------------------------------------------|
A|-----------------------------------------------------------------------|
D|-10-9-7-5-3-2-5/17-15/17-17/19-17-12-10-9-7-5-3-2-5/15-15-15-15-15-15--|

G|-------------------------------------------------------------------------|
D|-------------------------------------------------------------------------|
A|-8-7-3-0---8-7-3-0-------------------------------------------------------|
D|---------5----------5/15~------------------------------------------------|

Lots of the notes are holds. Listen to the song to find out the timing and stuff. If 
bass can't really sustain a note for too long, then you can strum a few times to the beat, 
it'll sound pretty much the same.

Comment this if you have any corrections to the tab =]

Btw, this is tabbed off of this song in his album "Everything in Transit".

~Hobo11
            
Submit corrections

comments powered by Disqus
↑ Back to top | Jacks Mannequin Bass for Holiday From Real. Lyrics for acoustic guitar and electric guitar. 1 Tablatures and chords are parodies/interpretations of the original songs. You may use it for private study, scholarship, research or language learning purposes only