» » »

Jacks Mannequin, Holiday For Real Bass tabs (ver.1)

Artists:  A B C D E F G H I J K L M N O P Q R S T U V W X Y Z # 

Holiday For Real Bass tabs (ver.1)

Jacks Mannequin Tabs
Rating:
5/5 (2 votes)
Holiday For Real lessons Tabs too difficult? Try these video lessons and learn fast
                Band: Jack’s Mannequin

I’m sorry, I know I haven’t done the timing correctly.
I hope the notes are correct.
Listen carefully not to mix up 1’s 2’s with 11’s 12’s etc.

/ = slide up
\ = slide down
~ = let ring

Please Rate

Verse 1: (12’s, 10’s, 15’s, 14’s, 17’s)

G|---------------------------------|
D|--------------------------101099-| 
A|-7/12121212-10101010-8888/-------|
E|---------------------------------|

G|------------------------1097-|
D|-----------------------------| 
A|-12121212-10101010-8888------|
E|-----------------------------|

G|------------------------------|
D|----------------------12-10-9-| 
A|-12121212-10101010-88/--------|
E|------------------------------|

G|--------------------------|
D|--------------------------| 
A|-12121212-10101010-88888\-|
E|--------------------------|

Pre-chorus (0:19) (0’s, 1’s)

G|--------------------|
D|--------------------| 
A|-0000--------3--3-2-|
E|------3333-11-1-----|

G|---------------------|
D|---------------------| 
A|-0000------5555-8787-|
E|------3333-----------|

G|------------------------------------------|
D|------------------------------------------| 
A|-------------3----3-----------------------|
E|-3333-5555-11-1-11-1/(1111111111)-131313--|

() = 11’s

Chorus (0:36) (1’s, 15’s 17’s)

G|---------------------------------------------------|
D|---------------------------------------------------| 
A|---------------------------------------------------|
E|-8888-7777-5555-3333-1111-0000-33/1515151515171517-|

G|---------------------------------------------------|
D|---------------------------------------------------| 
A|---------------------------------------------------|
E|-8888-7777-5555-3333-1111-0000-33/1515151515151515-|

Post Chorus: (13’s)

G|-----------------------------------|
D|-----------------------------------| 
A|-8-7-------------------------------|
E|-----8888-5555-3333-13131313131313-|

Verse 2 (1:01) (12’s 10’s 14’s 17’s 15’s)

G|-----------------------------|
D|---------------------1012109-| 
A|-12121212-10101010-88--------|
E|-----------------------------|

G|--------------------------|
D|-7-7/1414-------------710-| 
A|----------10~----8~-10----|
E|--------------------------|

G|------------------------------|
D|----------------------12-10-9-| 
A|-12121212-10101010-88/--------|
E|------------------------------|

G|----------------------1010101097---|
D|--------------------------------10-| 
A|-12121212-10101010-8~--------------|
E|-----------------------------------|

Pre-chorus (1:19)
Chorus (1:35)

Bridge: (1:54) (15’s 12’s 14’s 10’s 17’s)

G|-------------------------------|
D|-------------------------------| 
A|----3/15~-8/12~14-15-10~/12\10-|
E|-0~----------------------------|

G|----------------------------------|
D|----------------------------------| 
A|---10-12-14-15~/17-12-14-15-10-8~-|
E|-0--------------------------------|

Chorus (2:18)
End: (2:35)

G|--------------------|
D|--------------------| 
A|-8-7----------------|
E|-----8888-5555-3333-|

G|-----------------------|
D|-----------------------| 
A|-8-7----------------8~-|
E|-----8888-5555-3333----|
            
Submit corrections

comments powered by Disqus
↑ Back to top | Jacks Mannequin Bass for Holiday For Real. Lyrics for acoustic guitar and electric guitar. Tablatures and chords are parodies/interpretations of the original songs. You may use it for private study, scholarship, research or language learning purposes only