» » »

Jacks Mannequin, Dark Blue Tabs (ver.4)

Artists:  A B C D E F G H I J K L M N O P Q R S T U V W X Y Z # 

Dark Blue Tabs (ver.4)

Jacks Mannequin Tabs
 Rating:
3.8/5 (5 votes)
Dark Blue lessons Tabs too difficult? Try these video lessons and learn fast
1
                                  dark blue by jacks mannequin
                             intro/verse
e[--------------------------------------------------------------------------|
b[--------------------------------------------------------------------------|
g[8-8-7-7-5-5-7-7-----------------------------------------------------------|
d[-8-8-8-8-8-8-8-8----------------------------------------------------------|
a[--------------------------------------------------------------------------|
e[--------------------------------------------------------------------------|

                         intro pt.2
e[--------------------------------------------------------------------------|
b[11-8---11-8---------------------------------------------------------------|
g[----8-------10-8----------------------------------------------------------|
d[--------------------------------------------------------------------------|
a[--------------------------------------------------------------------------|
e[--------------------------------------------------------------------------|

                              pre chorus
e[-------------------------------------------------------------------------|
b[-------------------------------------------------------------------------|
g[-------------------------------------------------------------------------|
d[8-8----------------------------------------------------------------------|
a[6-5-6--------------------------------------------------------------------|
e[----4--------------------------------------------------------------------|

                               chorus
e[--------------------------------------------------------------------------|
b[--------------------------------------------------------------------------|
g[--------------------------------------------------------------------------|
d[8-8-5---------------------------------------------------------------------|
a[6-5-3-6-8-----------------------------------------------------------------|
e[------4-6-----------------------------------------------------------------|


                               bridge
e[-------------------------------------------------------------------------|
b[-------------------------------------------------------------------------|
g[5-7---5-7-8--------------------------------------------------------------|
d[5-7-6-5-7-8--------------------------------------------------------------|
a[3-5-6-3-5-6--------------------------------------------------------------|
e[----4--------------------------------------------------------------------|

                           solo
e[-------------------------------------------------------------------------|
b[11-11-11-8-8-8-----11-11-11-8-8-8----------------------------------------|
g[-------------8-8-8---------------8-8-8-----------------------------------|
d[-------------------------------------------------------------------------|
a[-------------------------------------------------------------------------|
e[-------------------------------------------------------------------------|
FIGURE THE ORDER OUT YOURSELF!


That's pretty much it. This is my first tab. its pretty awesome though. I just listened
figured out the song. jacks mannequin is the best soft rock band ever!
            
Submit corrections

comments powered by Disqus
↑ Back to top | Jacks Mannequin Tabs for Dark Blue. Lyrics for acoustic guitar and electric guitar. 1 Tablatures and chords are parodies/interpretations of the original songs. You may use it for private study, scholarship, research or language learning purposes only