» » »

Jacks Mannequin, Dark Blue Chords (ver.4)

Artists:  A B C D E F G H I J K L M N O P Q R S T U V W X Y Z # 

Dark Blue Chords (ver.4)

Jacks Mannequin Tabs
 Rating:
3.8/5 (5 votes)
Dark Blue lessons Tabs too difficult? Try these video lessons and learn fast
1
                I transcribed the piano intro:

e|-------------------------------------------------------------------------|
B|--4--4--3--3--1--1--3--3-------------------------------------------------|
G|---3--3--3--3--3--3--3--3------------------------------------------------|
D|-------------------------------------------------------------------------|
A|-------------------------------------------------------------------------|
E|-------------------------------------------------------------------------|

Guitar Intro:
e|-6--3-----6--3------------|---6--3-----6--3---------------3--6-----------|
B|-------4--------4--6--4---|---------4---------4--6--4--6-----------------|
G|--------------------------|----------------------------------------------|
D|--------------------------|----------------------------------------------|
A|--------------------------|----------------------------------------------|
E|--------------------------|----------------------------------------------|
            2x

Verse:

Eb                  Bb
I have (I have) you breathing down my neck (breathing down my neck)
      Cm                            Ab                     Bb
I don't (don't know) what you could possibly expect under this condition so
Eb                            Bb
I'll wait (I'll wait) for the ambulance to come (ambulance to come)
    Cm
Pick us up off the floor
             Ab                         Bb
What did you possibly expect under this condition so


Prechorus:

Cm          F                      Ab
Slow down.. this night's a perfect shade of


Chorus:

Eb
Dark blue (dark blue)
   Bb                                        Cm
Have you ever been alone in a crowded room when I'm here with you
       Ab                              Bb
I said the world could be burning down and burning down
Eb
Dark blue (dark blue)
   Bb                                        Cm
Have you ever been alone in a crowded room well I'm here with you
       Ab                              Bb
I said the world could be burning 'til there's nothing but dark blue..

Just dark blue


Back to guitar Intro:
e|-6--3-----6--3------------|---6--3-----6--3---------------3--6-----------|
B|-------4--------4--6--4---|---------4---------4--6--4--6-----------------|
G|--------------------------|----------------------------------------------|
D|--------------------------|----------------------------------------------|
A|--------------------------|----------------------------------------------|
E|--------------------------|----------------------------------------------|
            2x

Verse is the same

Prechorus is the same

Chorus is the same

Bridge:  There is picking going on but its blah so i did the bass line instead, which 
impress more ladies

Cm(10th fret), Bb, Ab
Cm(3rd fret) and the next chord is Eb but the root note is on D, then change root note 
to Eb
                               Do this 2x

Quickly changes to Ab but the root note is on G, then to Ab, then to Bb
Cm(10th fret), Bb
Quickly changes to Ab but the root note is on G, then to Ab, then to Bb
Cm(10th fret), Bb
Quickly changes to Ab but the root note is on G, then to Ab, then to Bb
Cm(10th fret), Bb
Quickly changes to Ab but the root note is on G, then to Ab, then to Bb
Cm(10th fret), Bb(let it ring)

Before chorus there is a picking part but i forgot it and will update when I remember

Chorus

Piano Intro again

Guitar Intro

end on Eb
            
Submit corrections

comments powered by Disqus
↑ Back to top | Jacks Mannequin Chords for Dark Blue. Lyrics for acoustic guitar and electric guitar. 1 Tablatures and chords are parodies/interpretations of the original songs. You may use it for private study, scholarship, research or language learning purposes only