» » »

Jacks Mannequin, Caves Tabs (ver.1)

Artists:  A B C D E F G H I J K L M N O P Q R S T U V W X Y Z # 

Caves Tabs (ver.1)

Jacks Mannequin Tabs
 Rating:
4.5/5 (8 votes)
Caves lessons Tabs too difficult? Try these video lessons and learn fast
1
                (Intro)
-----------------------------------------------------
            "Caves" - Jack's Mannequin
-----------------------------------------------------

Tuning: Capo 3rd - standard


     INTRO/Pre-VERSE
e|-0-1-2-3-4-5-7-3-8-7-3-5-1-3-0-1-0-3-0-------|
B|----------------------------------------5\1--|
G|---------------------------------------------|
D|---------------------------------------------|
A|-3~----------0~----------------3~------------|
E|---------------------1~----------------------|

e|-0-1-2-3-4-5-7-3-8-7-3-5-1-3-0-1-0~-----|
B|----------------------------------------|
G|----------------------------------------|
D|----------------------------------------|
A|-3~----------0~----------------3~-------|
E|---------------------1~-----------------|

    VERSE
e|-----0------0---------------0--|      
B|-----0------1------1--------1--|     
G|-----0------2------2-2------0--| X 3 
D|---2------2----------3----2----|     
A|-3------0--------3------3------|    
E|---------------1---------------|     

e|-1--0--3-----1~--3~--| 
B|-1--1--3-----1~--3~--|
G|-2--0--0-----2~--4~--|
D|-3--2--0-----3~--5~--|
A|-3--3--2-----3~--5~--|
E|-1-----3-----1~--3~--|
            
Submit corrections

comments powered by Disqus
↑ Back to top | Jacks Mannequin Tabs for Caves. Lyrics for acoustic guitar and electric guitar. 1 Tablatures and chords are parodies/interpretations of the original songs. You may use it for private study, scholarship, research or language learning purposes only