» » »

Jack Savoretti, No One's Aware Tabs (ver.1)

Artists:  A B C D E F G H I J K L M N O P Q R S T U V W X Y Z # 

No One's Aware Tabs (ver.1)

Jack Savoretti Tabs
 Rating:
4/5 (4 votes)
No One's Aware lessons Tabs too difficult? Try these video lessons and learn fast
1
                -------------------------------------------------------------------------------
-------------------------------------------------------------------------------

Sorry I can't break it down any better but if you play along with the song you should be 
to figure it out.
I know the bridge is supposed to be a little more complicated but I can't figure it out. 
anyone can make this better please let me know :)

Tuning: Standard

Intro
e|----------------------3-3------2-2--| 2x
B|-------------1-1------0-0------3-3--|
G|----0-0------0-0------0-0------2-2--|
D|----0-0------2-2--------------------|
A|----2-2----3------------------------|
E|--0-----------------3--------2------|

Verse
e|----------------------3-3------2-2--|  3x
B|-------------1-1------0-0------3-3--|
G|----0-0------0-0------0-0------2-2--|
D|----0-0------2-2--------------------|
A|----2-2----3------------------------|
E|--0-----------------3--------2------|

Bridge
e|------------------------------------|
B|----1-1----1-1------1-1----1-1------|
G|----2-2----2-2------0-0----0-0------|
D|----2-2----2-2------2-2----2-2------|
A|--0------0--------3------3----------|
E|------------------------------------|

Chorus
e|----3-3------2-2--------------------| 2x
B|----0-0------3-3------0-0------1-1--|
G|----0-0------2-2------0-0------0-0--|
D|----------------------2-2------2-2--|
A|-----------------------------3------|
E|--3--------2--------0---------------|


| /  slide up
| \  slide down
| h  hammer-on
| p  pull-off
| ~  vibrato
| +  harmonic
| x  Mute note
===============================================================================
            
Submit corrections

comments powered by Disqus
↑ Back to top | Jack Savoretti Tabs for No One's Aware. Lyrics for acoustic guitar and electric guitar. 1 Tablatures and chords are parodies/interpretations of the original songs. You may use it for private study, scholarship, research or language learning purposes only