» » »

Jack Savoretti, Apologies Tabs (ver.1)

Artists:  A B C D E F G H I J K L M N O P Q R S T U V W X Y Z # 

Apologies Tabs (ver.1)

Jack Savoretti Tabs
 Rating:
4.2/5 (5 votes)
Apologies lessons Tabs too difficult? Try these video lessons and learn fast
                -------------------------------------------------------------------------
APOLOGIES – Jack Savoretti
-------------------------------------------------------------------------

>>Here's one to exercise your fingerpicking with, and it's quite fast-
paced, or for me it is, anyway. If you get the intro pattern right, the
rest of the song will be easy, cause it's all the same pattern. I've seen
he sometimes plays with capo, but this is "capoless", according to the
album. Try it out.<<

Standard tuning

INTRO and picking pattern
   G                       C/G                       G
e|-----------------------------------------------------------------3----|
B|-0------0----0------0----0h1------1----1------1----1p0------0---------|
G|----0------0----0------0------0------0----0------0------0------0----0-|
D|---0------0----0------0------2------2----2------2------0------0----0--|
A|----------------------------------------------------------------------|
E|-3----3------3----3------3------3------3----3------3------3------3----|
          C/G
e|--------------------------------------|
B|---0----0h1------1----1------1--------|
G|------0------0------0----0------0-----|and so on, keep the same pattern
D|-----0------2------2----2------2------|as the chords change. You’ll
A|--------------------------------------|figure it out – not as hard as
E|-3------3------3------3----3----------|you might think

VERSE1
     G                 C/G             G    C/G
Well it's too late for apologies, my dear 
     G                 C/G          D Dsus2 Dsus4 D
I've been living in your imagery of fear 
C                     D
  In all that I could see 
    G    D/F#      Em  
was everything you need 
C                  D          G   C/G   G   C/G
  And oh my darling, it ain't me 

VERSE2
    G                    C/G                G    C/G
So I guess that's why I've gone and hit the road 
     G                   C/G            D Dsus2 Dsus4 D
Well I bet you thought I’d never really go 
C              D
  But I had to leave  
      G     D/F#        Em
Cause all I thought I believed 
C              D      G      G7
  Oh my darling, wasn't me 

BRIDGE
C                               D               G       D/F#  Em
  And I've been looking for the answers to your questions 
C                             D                   G D/F# Em
  And I've been living like a beggar, begging you please 
C               D
  How did I set free 
    G        D/F#     Em
The man that you made me 
C              D          G   C/G
  Oh my darling, you tell me 
        G     C/G
You tell me
      G                 C/G          G       C/G
Cause it’s too late for apologies, my dear

G  C/G  G  C/G     G
==================================================================
            
Submit corrections

comments powered by Disqus
↑ Back to top | Jack Savoretti Tabs for Apologies. Lyrics for acoustic guitar and electric guitar. Tablatures and chords are parodies/interpretations of the original songs. You may use it for private study, scholarship, research or language learning purposes only