» » »

Jack Penate, Tonight's Today Tabs (ver.1)

Artists:  A B C D E F G H I J K L M N O P Q R S T U V W X Y Z # 

Tonight's Today Tabs (ver.1)

Jack Penate Tabs
 Rating:
4/5 (4 votes)
Tonight's Today lessons Tabs too difficult? Try these video lessons and learn fast
                

Bass:

---------------------------|
---------------------------|
---------------------------|
---------------------------|
-----9-11-9----------------|
-9-9---------7-7-7-7-7-----|


Guitar Verse:

-9-9---16-16-16--1111111111-|
-1010--16-16-16--1212121212-|
-9-9---16-16-16--1111111111-|
----------------------------|
----------------------------|
----------------------------|

Guitar SoloThingy after chorus:

9-9-9-9-9--12-11-9---------|
1010101010---------12-9----|
---------------------------|
---------------------------|
---------------------------|
---------------------------|


-111111111111--14-16-14----|
-121212121212--------------|
---------------------------|
---------------------------|
---------------------------|
---------------------------|

Guitar chords:

-4-2-2-2---|
-5-2-4-4---|
-6-3-4-4---| Not sure about thooosee...
-6-4-4-4---|
-4-4-2-2---|
---2-------|


Guitar Chorus:

-11111111-9-9-9-----|
-12121212-101010----|
--------------------|
--------------------|
--------------------|
--------------------|

-9-9-9-9--111111----|
-10101010-121212----|
--------------------|
--------------------|
--------------------|
--------------------|

-9-9-9-9---7777--|
-10101010--7777--|
-----------------|
-----------------|
-----------------|
-----------------|

Or something like that haha...

Bridge:

11111111--11---9-|
9-9-9-9---9--9-9-|
-------------8---| Not sure if this is right :S
-----------------|
-----------------|
-----------------|

LYRICS:

I'm in a haze
an in between stage
Cos I'm not awake
but walk in a state
Of ghostly charm
a deadly calm
And my filthy palms
Reach for the harms

Today's tonight tonight's today today's tonight (2x)
Tonight's today today's tonight tonight's today
Everyday everyday everyday

Tonight just became this morning
The sun's waves at the moon
The thought has just started dawning
That there's still so much more that I can do
I shuffle into the sunlight
A zombie roaming on the day
She look's at me and says "What a sight"
A passing woman says

Today's tonight tonight's today today's tonight (2x)
Tonight's today today's tonight tonight's today

Every nights the same
I'm ringing church bells ,church bells,
I'm ringing church bells
I'm ringing church bells ,church bells,
I'm ringing church bells
I'm ringing bells

Today's tonight tonight's today today's tonight (2x)
Tonight's today today's tonight tonight's today
Everyday everyday
            
Submit corrections

comments powered by Disqus
↑ Back to top | Jack Penate Tabs for Tonight's Today. Lyrics for acoustic guitar and electric guitar. Tablatures and chords are parodies/interpretations of the original songs. You may use it for private study, scholarship, research or language learning purposes only