» » »

Spit At Stars Tabs (ver.1)

Artists:  A B C D E F G H I J K L M N O P Q R S T U V W X Y Z # 

Spit At Stars Tabs (ver.1)

Jack Penate
Rating:
4/5 (3 votes)

Hard to play? Try these video lessons and learn fast.
                -------------------------------------------------------------------------------
-------------------------------------------------------------------------------

Tuning: standard
CAPO ON 2ND

This is my first ever tab....

you'll have to work out the strum patterns yourself, its quite easy if u listen to the song.

INTRO

e|---3-3-3-3-3-3-3-----------------3----------------------------------|
B|---3-3-3-3-3-3-3-----------------3----------------------------------|
G|----------------------X3--end on -----------------------------------|
D|---------2-2-2-2----------------------------------------------------|
A|---2-2-2-3-3-3-3-----------------2----------------------------------|
E|---3-3-3-------------------------3----------------------------------|

VERSE

e|---3-3-3-3-3-3-3--------------7--10---5--5--------------------------|
B|---3-3-3-3-3-3-3--------------9--9----5--5--------------------------|
G|----------------------X8------7--7----6--5----x4--------------------|
D|---------2-2-2-2--------------8--8----5--5--------------------------|
A|---2-2-2-3-3-3-3--------------7--7----7--7--------------------------|
E|---3-3-3----------------------7--7----5--5--------------------------|

CHORUS

e|-3-3-3-------2-2-2-3-3-3-5--5-----5--5--2---------------------------|
B|-------1-1-1-3-3-3-5-5-5-7--7-----7--3--3--1------------------------|
G|-------------2-2-2-5-5-5-7--7-----7--3--2-------x4------------------|
D|-------2-2-2-4-4-4-5-5-5-7--7-----7--3--4--2------------------------|
A|-2-2-2-3-3-3-2-2-2-3-3-3-5--5-----5--5--2--3------------------------|
E|-3-3-3-------2-2-2-3-3-3-5--5-----5--5--2---------------------------|

BRIDGE

e|---3-3---5-5---2-2---3-3----------3-3---5-5--2-2--------------------|
B|---5-5---7-7---3-3---5-5----------5-5---7-7--3-3---1-1-1-1-1-1------|
G|---5-5---7-7---2-2---5-5----X3----5 5---7-7--2-2----------------ETC-|
D|---5-5---7-7---4-4---5-5----------5-5---7-7--4-4---2-2-2-2-2-2------|
A|---3-3---5-5---2-2---3-3----------3-3---5-5--2-2---3-3-3-3-3-3------|
E|---3-3---5-5---2-2---3-3----------3-3---5-5--2-2--------------------|


OUTRO

e|----5--5--2-----3---------------------|
B|----7--3--3--1------------------------|
G|----7--3--2---------------------------|
D|----7--3--4--2------------------------|
A|----5--5--2--3--2---------------------|
E|----5--5--2-----3---------------------|

lovely little song, email with comments...

order is 

INTRO
VERSE
CHORUS
INTRO
VERSE
CHORUS
INTRO
BRIDGE
VERSE
CHORUS
INTRO 
OUTRO


| /  slide up
| \  slide down
| h  hammer-on
| p  pull-off
| ~  vibrato
| +  harmonic
| x  Mute note
===============================================================================
            
Hard to play? Try these video lessons and learn fast. | Correct




comments powered by Disqus
↑ Back to top | Tablatures and chords are parodies/interpretations of the original songs. You may use it for private study, scholarship, research or language learning purposes only