» » »

So Near Tabs (ver.1)

Artists:  A B C D E F G H I J K L M N O P Q R S T U V W X Y Z # 

So Near Tabs (ver.1)

Jack Penate
Rating:
4/5 (2 votes)

Tabs too difficult? Try these video lessons and learn fast.
                

Intro/Chorus:


-9--7-------------------|
------9-7---------------|
----------9--6---9------|
----------------9-------|
------------------------|
------------------------|


Verse Thing:


999-777----77----77-----|
--------99----99----99--|
------------------------|
------------------------|
------------------------|
------------------------|

999-777----77----77-----|
--------99----99----99--|
------------------------|
------------------------|
------------------------|
------------------------|

999-777----999-777-----|
--------99---------99--|
-----------------------|
-----------------------|
-----------------------|
-----------------------|

999-777----77-----------|
--------99----99-77-----|
--------------------99--|
------------------------|
------------------------|
------------------------|

It comes in after a while ;D 


Verse Chords:

-7|-4|-0-2|-7-|
-9|-5|-2-4|-9-|
-8|-4|-2-4|-8-|
-9|-6|-2-4|-9-|
-7|-4|-0-2|-7-|
--|--|----|---|

Pre-Chorus:

-12--11--|
-14--12--|
-13--11--|
-14--13--|
-12--11--|
---------|


Chorus:

-7--------------12--11---|
-9--------------14--12---|
-8--------------13--11---|
-9--------------14--13---|
-7--------------12--11---|
-------------------------|

Bridge:

-4---2--0--|
-5---4--2--|
-4---4--2--|
-6---4--2--|
-4---2--0--|
-----------|


Lyrics:

I took another step
to find out which way my feet would fall.
The right way must be left
as straight ahead is never good at all.

I found myself beside
a boat to leave for foreign tides,
I shouted for a ride
but no one answered me, no one replied.

What's a room when we are gone,
just some walls that don't belong.
What's a body when there's fear
of love man, we're so near.

I'm so near.
I'm so near.
I'm so near.

I'm so near.

I ran towards the sound
of falling tree's crashing to the ground.
But nothing could be found
So I dropped my hat and slowly turned around

Love is not a game
but something I am desperate not to tame.
I'm searching for your name
in places that I'll never go again.

What's a room when we are gone.
just some walls that don't belong.
What's a body when there's fear
of love man, we're so near.

I'm so near.
I'm so near.
I'm so near.

Every moment passes by me
Every moment passes by (x3)

I'm so near.
            
Tabs too difficult? Try these video lessons and learn fast.




comments powered by Disqus
↑ Back to top | Tablatures and chords are parodies/interpretations of the original songs. You may use it for private study, scholarship, research or language learning purposes only