» » »

Silence In Speech Chords (ver.1)

Artists:  A B C D E F G H I J K L M N O P Q R S T U V W X Y Z # 

Silence In Speech Chords (ver.1)

Jack Penate
Rating:
0/5 (0 votes)

Hard to play? Try these video lessons and learn fast.
                

CHORDS USED:

Dmaj7|Em7|Cmaj7|F#m|
-5---|-7-|-3---|-9-|
-7---|-8-|-5---|-10|
-6---|-7-|-4---|-11|
-7---|-9-|-5---|-11|
-5---|-7-|-3---|-9-|
-----|---|-----|---|


Intro:

|---15---14---12-------14---12---10---|
|-------------------------------------|
|-16---14---12-------14---12---11-----|
|-------------------------------------|
|-------------------------------------|
|-------------------------------------|


           Dmaj7           Em7
|------------5--------------7---------|
|------------7--------------8---------|
|------------6--------------7---------|
|-----0------7-------0------9---------|
|-0h2---2p0--5---0h2---2p0--7---------|
|-------------------------------------|

           Dmaj7           Em7
|------------5--------------7-10------|
|------------7--------------8-8-------|
|------------6--------------7-7-------|
|-----0------7-------0------9-9-------|
|-0h2---2p0--5---0h2---2p0--7-7-------|
|-------------------------------------|




Dmaj7                      Em7
Silence never spoke to me so loud
Dmaj7                              Em7
Since last night you haven't made a sound


Cmaj7        Dmaj7
   What lies beneath 
Cmaj7           Dmaj7
   you silence in speech?


Dmaj7,Em7,Dmaj7,Em7



Dmaj7                              Em7
You tell me I should know what I've done
Dmaj7                                    Em7
I don't know where did these wrongs come from?


Cmaj7      Dmaj7
   What lies beneath 
Cmaj7         Dmaj7
   you silence in speech?



Em7         Dmaj7
I can never write what's wrong
Em7         Dmaj7
I can never write what's wrong
Em7         Dmaj7        Cmaj7
I can never write what's wrong


Em7           Dmaj7
If you saying nothing's wrong
Em7           Dmaj7
If you saying nothing's wrong
Em7           Dmaj7              Cmaj7
If you saying nothing, nothing's wrong


Dmaj7   Em7
            Tell me what's wrong
Dmaj7   Em7
            Tell me what's wrong
Dmaj7   Em7
            Tell me what's wrong
Dmaj7   Em7
            Tell me what's...


Dmaj7,Em7.Dmaj7,Em7


Dmaj7                         Em7
Written in your bad book for a day
D                              Em7
Seems to long just tell me what to say


Cmaj7      Dmaj7
   What lies beneath 
Cmaj7         Dmaj7
   you silence in speech?


Em7         Dmaj7
I can never write what's wrong
Em7         Dmaj7
I can never write what's wrong
Em7         Dmaj7        Cmaj7
I can never write what's wrong


Em7           Dmaj7
If you saying nothing's wrong
Em7           Dmaj7
If you saying nothing's wrong
Em7           Dmaj7              Cmaj7
If you saying nothing, nothing's wrong


Dmaj7   Em7
            Tell me what's wrong
Dmaj7   Em7
            Tell me what's wrong
Dmaj7   Em7
            Tell me what's wrong
Dmaj7   Em7          F#m
            I know I'm wrong 
Em7                  F#m
            I know I'm wrong 
Em7                        Dmaj7
            Tell me what's wrong 


Outro:

|---15---14---12-------14---12---10---|
|-------------------------------------|
|-16---14---12-------14---12---11-----|
|-------------------------------------|
|-------------------------------------|
|-------------------------------------|
            
Hard to play? Try these video lessons and learn fast. | Correct




comments powered by Disqus
↑ Back to top | Tablatures and chords are parodies/interpretations of the original songs. You may use it for private study, scholarship, research or language learning purposes only