» » »

Vivvica Bass tabs (ver.1)

Artists:  A B C D E F G H I J K L M N O P Q R S T U V W X Y Z # 

Vivvica Bass tabs (ver.1)

Jack Off Jill
Rating:
0/5 (0 votes)

Hard to play? Try these video lessons and learn fast.
                G|------------------------------------------------|
D|-------3-2--------------------------------------|
A|5-55-5-------3-33-3-3-3-------------------------|
E|----------------------------------5-55-5-3-55---|


Chorus
G|-----------------------------------------------------------------------|
D|-----------------------------------------------------------------------|
A|-----------------------------------------------------------------------|
E|--9-99-9999-99---9-99-9999-99-7-77-7777-77---7-77-7777-77--------------|

Bridge
G|------------------------------------------|
D|------------------------------------------|
A|------------------------------------------|
E|--9-99-9999-99---7-77-7777-77-------------|

JJ
            
Hard to play? Try these video lessons and learn fast. | Correct




comments powered by Disqus
↑ Back to top | Tablatures and chords are parodies/interpretations of the original songs. You may use it for private study, scholarship, research or language learning purposes only