» » »

Super Sadist Tabs (ver.1)

Artists:  A B C D E F G H I J K L M N O P Q R S T U V W X Y Z # 

Super Sadist Tabs (ver.1)

Jack Off Jill
Rating:
0/5 (0 votes)

Hard to play? Try these video lessons and learn fast.
                
This is a really easy song to play. Riff 2 is basically riff 1 with the end cut off, so i dont think anyone will have any problems :)

RIFF 1

G---------5-5-5-----------6-6
D-5-5-5-5-5-5-5-6--6-6-6--6-6
A-5-5-5-5-3-3-3-6--6-6-6--4-4
E-3-3-3-3-------4--4-4-4-----

G---------5-5-5-----------6-6
D-5-5-5-5-5-5-5-6--6-6-6--6-6
A-5-5-5-5-3-3-3-6--6-6-6--4-4
E-3-3-3-3-------4--4-4-4-----

RIFF 2

G---------5-5-5
D-5-5-5-5-5-5-5-6
A-5-5-5-5-3-3-3-6
E-3-3-3-3-------4

on riff 2, silence heavily after the last chord.

riff order:

riff 1 x3
riff 2 x4
riff 1 x3
riff 2 x4
riff 1 x5
riff 2 x3

and thats it.
            
Hard to play? Try these video lessons and learn fast. | Correct




comments powered by Disqus
↑ Back to top | Tablatures and chords are parodies/interpretations of the original songs. You may use it for private study, scholarship, research or language learning purposes only