» » »

Jack Off Jill, Strawberry Gashes Bass tabs (ver.1)

Artists:  A B C D E F G H I J K L M N O P Q R S T U V W X Y Z # 

Strawberry Gashes Bass tabs (ver.1)

Jack Off Jill Tabs
Rating:
1/5 (3 votes)
Strawberry Gashes lessons Tabs too difficult? Try these video lessons and learn fast
                -------------------------------------------------------------------------------
-------------------------------------------------------------------------------


Tuning: Drop D

Intro/Figure 1
G|------------|------------|------------|------------|------------|------------|---|
D|------------|------------|------------|------------|------------|------------|---|
A|------------|------------|------------|------------|------------|------------|---|
D|-6--6-6-6-6-|-6--6-6-6-6-|-2--2-2-2-2-|-2--2-2-2-2-|-6--6-6-6-6-|-6--6-6-6-6-|---|

----------|----------|
----------|----------|
----------|----------|
2--2-2-2-2-|-2--2--2-|
Verses 1 & 2/Figure 2
G|----------|---------|---------|---------|---------|---------|---------|----------|
D|----------|---------|---------|---------|---------|---------|---------|----------|
A|----------|---------|---------|---------|---------|---------|---------|----------|
D|-6--6--6--|6--6--6--|2--2--2--|4--4--4--|6--6--6--|6--6--6--|2--2--2--|4--4--4---|

Chorus/Figure 3
G|-------------|-----------|-----------|------------|
D|-------------|-----------|-----------|------------|
A|-------------|-----------|-----------|------------|
D|--6--6-6-6-6-|6--6-6-6-6-|2--2-2-2-2-|4--4-4-4-4--|

Bridge/Figure 4
G|---------|---------|---------|----------|
D|---------|---------|---------|----------| repeat three times...
A|---------|---------|---------|----------|
D|-1-------|---------|1--------|1--1--1---|
...then
G|----------|---------|---------|----------|
D|----------|---------|---------|----------|
A|----------|---------|---------|----------|
D|1---------|---------|1--------|6--7--4---|

Verse 3/Figure 5
G|----------|---------|---------|---------|---------|---------|---------|----------|
D|----------|---------|---------|---------|---------|---------|---------|----------|
A|----------|---------|---------|---------|---------|---------|---------|----------|
D|-6--------|---------|2--------|4--------|6--------|---------|2--------|4---------|

Ending/Figure 6
G|---|
D|---|
A|---|
D|-6-|

Intro   : Fig. 1  1x
Verse 1 : Fig. 2  1x
Chorus 1: Fig. 3  1x
Verse 2 : Fig. 2  1x
Chorus 2: Fig. 3  1x
Bridge  : Fig. 4  1x
Verse 3 : Fig. 5  1x
Chorus 3: Fig. 3  2x
Ending  : Fig. 6  1x


===============================================================================
            

comments powered by Disqus
↑ Back to top | Jack Off Jill Bass for Strawberry Gashes. Lyrics for acoustic guitar and electric guitar. Tablatures and chords are parodies/interpretations of the original songs. You may use it for private study, scholarship, research or language learning purposes only