» » »

Jack Off Jill, Star No Star Tabs (ver.1)

Artists:  A B C D E F G H I J K L M N O P Q R S T U V W X Y Z # 

Star No Star Tabs (ver.1)

Jack Off Jill Tabs
 Rating:
4/5 (4 votes)
Star No Star lessons Tabs too difficult? Try these video lessons and learn fast
1
                |Jack Off Jill - Star No Star|

Standard Tuning: EADGBe

^ = 1/4 bend
h = hammer
p = pull off
~ = vibrato
/ = slide

Verse:
E|------------------------------------|
B|------------------------------------|
G|-----0------------------------------|
D|---2---2---2-4-2-----2-------4------| x8
A|-0-------2---------3---3---2---2----|
E|-----------------1-------0----------|    

Pre Chorus:
E|------------------------------------|
B|------------------------------------|
G|-----0------------------------------|
D|---2---2---2-4-2-----2-------0-2----|
A|-0-------2---------3---3-2-3--------|
E|-----------------1------------------|

Chorus: 
E|----------------------------------|
B|----------------------------------|
G|-2-2-2-4-4-4-4-7-7-7-7------------|
D|-2-2-2-4-4-4-4-7-7-7-7-3-2-3-5----| x4
A|-0-0-0-2-2-2-2-5-5-5-5-3-2-3-5----|
E|-----------------------1-0-1-3----|


--------:then:--------
Verse x 8

Pre Chorus x 1

Chorus x 4
----------------------

Solo: 

E|-2/4-4-5p4--------2/4-4-4-5-5-5-5-7^-7^-7^---|    
B|-----------5-4-5~----------------------------|   
G|---------------------------------------------| 
D|---------------------------------------------|                       
A|---------------------------------------------|             
E|---------------------------------------------|


E|-10-9-10-9---------10-9-10-9-----------10-9-10-9---7-9-7-5-7-5-4-5-4-5-4--------|
B|-----------10-9-9~-------------10-9-9~-----------------------------------5-4----|    
G|--------------------------------------------------------------------------------|
D|--------------------------------------------------------------------------------|
A|--------------------------------------------------------------------------------|
E|--------------------------------------------------------------------------------|

E|----4/5/4------4/5/4-----4/5/4-5/4-7^-7^-7^-7^------------------------------------|
B|-5~-------3/5--------3/5------------------------12-10-12-10-9--10-9-10-9----------|           
G|------------------------------------------------------------------------9-8-9----|
D|---------------------------------------------------------------------------------|
A|---------------------------------------------------------------------------------|
E|---------------------------------------------------------------------------------|

E|------------------------------------------------|
B|------------------------------------------------|
G|-9-9--9/7--7-7--7/6--6-6--6/4--4-4--4/2--2--2---|
D|------------------------------------------------|
A|------------------------------------------------|
E|------------------------------------------------|
 |
 |  Solo Backing/Outtro:
 |
E|---------------------------------------|
B|---------------------------------------|
G|-9-9-9-7--9-9-9-7--9-9-9-7--9 10-5-7---|
D|-9-9-9-7--9-9-9-7--9-9-9-7--9-10-5-7---|x4
A|-7-7-7-5--7-7-7-5--7-7-7-5--7-8--3-5---|
E|---------------------------------------|

--------:then:--------
Verse x 5

Pre Chorus x 1

Chorus x 4

Solo Backing/Outtro x 5
----------------------

End on:

E|------|
B|------|
G|-2----|
D|-2----|
A|-0----|
E|------|
            
Submit corrections

comments powered by Disqus
↑ Back to top | Jack Off Jill Tabs for Star No Star. Lyrics for acoustic guitar and electric guitar. 1 Tablatures and chords are parodies/interpretations of the original songs. You may use it for private study, scholarship, research or language learning purposes only