» » »

Jack Off Jill, Nazi Halo Tabs (ver.2)

Artists:  A B C D E F G H I J K L M N O P Q R S T U V W X Y Z # 

Nazi Halo Tabs (ver.2)

Jack Off Jill Tabs
 Rating:
4/5 (4 votes)
Nazi Halo lessons Tabs too difficult? Try these video lessons and learn fast
                standard tuning.
this tab is correct.

INTRO

D-4-
A-4-
E-2-

VERSE

G------------------------9-8
D-4-4-2-4-2-2-4-2--7--9--9-8
A-4-4-2-4-2-2-4-2--7--9--7-6
E-2-2-0-2-0-0-2-0--5--7-----

D-4-4-2-4-2-2-4-2--7--6--2-2-2
A-4-4-2-4-2-2-4-2--7--6--2-2-2
E-2-2-0-2-0-0-2-0--5--4--0-0-0

CHORUS

D-4--4-2--2-9--9-7--7-5
A-4--4-2--2-9--9-7--7-5
E-2--2-0--0-7--7-5--5-3

D-4--4-2--2-9--9-7--7-5------
A-4--4-2--2-9--9-7--7-5------
E-2--2-0--0-7--7-5--5-3-3/5\3

D-4--4-2--2-9--9-7--7-5
A-4--4-2--2-9--9-7--7-5
E-2--2-0--0-7--7-5--5-3

D-4--4-2--2-9--9-7--7-5------
A-4--4-2--2-9--9-7--7-5------
E-2--2-0--0-7--7-5--5-3-3/5\3

INTERLUDE

D-4----4----4----4----4-----
A-4----4----4----4----4-----
E-2--0-2--0-2--0-2--0-2--0-0

END

D-4-
A-4-
E-2-
            
Submit corrections

comments powered by Disqus
↑ Back to top | Jack Off Jill Tabs for Nazi Halo. Lyrics for acoustic guitar and electric guitar. Tablatures and chords are parodies/interpretations of the original songs. You may use it for private study, scholarship, research or language learning purposes only