» » »

Girlscout Bass tabs (ver.1)

Artists:  A B C D E F G H I J K L M N O P Q R S T U V W X Y Z # 

Girlscout Bass tabs (ver.1)

Jack Off Jill
Rating:
0/5 (0 votes)

Hard to play? Try these video lessons and learn fast.
                band - Jack off jill
song - girlscout

this is my fave. joj song and i think this tab is good and sounds like

Riff 1                              (play this @ the nd of the riff)
                                            ^
G----------------------------------I-------------------I
D-----------------5-5-5-5----------I----35-------------I
A-6-6-6-6-3-3-3-3---------5-5-5-5--I-35----5-----------I
E----------------------------------I-------------------I

Riff 2

G----------------------------------------------I
D---------------------3h5554-----3h554---------I
A-7-77777-3-33333-555--------555-------57------I
E----------------------------------------------I

Riff 3     singing - ( kissed by a star ...)
                         (play @ end of riff)
G-----------------I-------------------------I
D-----------------I-----35------------------I
A-5777777---------I--35----57---------------I
E-----------------I-------------------------I

End on 

G---------------I
D---------------I
A---7-----------I
E---------------I

Stucture:
Riff 1 x 4
Riff 2 x 4
Riff 1 x 4
Riff 2 x 4
Riff 3 x 4
Riff 2 x 4
End    x 1

note - at the begging of the song the riff is played with 2 notes on each I think,ull hear the rhythm and amounts of notes,enjoy!
            
Hard to play? Try these video lessons and learn fast. | Correct




comments powered by Disqus
↑ Back to top | Tablatures and chords are parodies/interpretations of the original songs. You may use it for private study, scholarship, research or language learning purposes only