» » »

Fear Od Dying Bass tabs (ver.1)

Artists:  A B C D E F G H I J K L M N O P Q R S T U V W X Y Z # 

Fear Od Dying Bass tabs (ver.1)

Jack Off Jill
Rating:
0/5 (0 votes)

Hard to play? Try these video lessons and learn fast.
                Beginning / Verse

G|--------------------------------------------------------------
D|--------------------------------------------------------------
A|--------------------------------------------------------------
E|--0--00000-0---2--22222-2---3--33333-3---5--555--8-7-6--------


CHORUS

G|-------------------------------------------------------------
D|-------------------------------------------------------------
A|--0-0000--2-3--3333---2--0--------------------3--------------
E|----------------------------3--333--22--0000-----------------

repeat


AFTER CHORUS

G|------------------------------------------------------------
D|------------------------------------------------------------
A|--0-----8-7-0-8-7-0-8----8-7-0-8-7-0------------------------
E|------------------------------------------------------------


RIFF

G|---------------------------------------------------------------
D|---------------------------------------------------------------
A|---3-3--333--0-0-00000----0----------8-7-0-8-7-0-8---8-7-0-8-7-0
E|----------------------------------------------------------------

Thats all!
            
Hard to play? Try these video lessons and learn fast. | Correct




comments powered by Disqus
↑ Back to top | Tablatures and chords are parodies/interpretations of the original songs. You may use it for private study, scholarship, research or language learning purposes only