» » »

Clear Hearts Grey Flowers Bass tabs (ver.1)

Artists:  A B C D E F G H I J K L M N O P Q R S T U V W X Y Z # 

Clear Hearts Grey Flowers Bass tabs (ver.1)

Jack Off Jill
Rating:
0/5 (0 votes)

Tabs too difficult? Try these video lessons and learn fast.
                
I'm not sure about the opening notes and the beginning of the second 
verse. Please e-mail me corrections.

Verse

G------|-------------
D------|-------------
A------|---0---------
E-7h9\-|-3---1-11-111

Chorus

G-------------------------------------------------
D-------------------------------------------------
A-5---3-------6---4-------5---3-------6---44-4-444
E---5---4-3-4---6---5-4-5---5---4-3-4---6---------

Beginning of second verse

G--------
D--------
A-5-4h6--
E-------5

Second chorus

G-------------------------------------------------
D-------------------------------------------------
A-5---3-------6---4-------5---3-------6---44-4-444
E---5---4-3-4---6---5-4-5---5---4-3-4---6---------

G-------------------------------------------------
D-------------------------------------------------
A---5-3---------6-4---------5-3---------6-44-4-444
E-5-----4-3-4-6-----5-4-5-5-----4-3-4-6-----------

Third chorus

G-------------------------------------------------
D-------------------------------------------------
A-5---3-------6---4-------5---3-------6---44-4-444
E---5---4-3-4---6---5-4-5---5---4-3-4---6---------

G-------------------------------------------------
D-------------------------------------------------
A---5-3---------6-4---------5-3---------6-44-4-444
E-5-----4-3-4-6-----5-4-5-5-----4-3-4-6-----------

G-------------------------|--------------
D-------------------------|--------------
A---5-3---6-5---6-4---7-6-|---5-3---6-4--
E-5-----4-----6-----5-----|-5-----4-----5
            
Tabs too difficult? Try these video lessons and learn fast.


comments powered by Disqus
↑ Back to top | Tablatures and chords are parodies/interpretations of the original songs. You may use it for private study, scholarship, research or language learning purposes only