» » »

Jack Off Jill, Cinnamon Spider Bass tabs (ver.1)

Artists:  A B C D E F G H I J K L M N O P Q R S T U V W X Y Z # 

Cinnamon Spider Bass tabs (ver.1)

Jack Off Jill Tabs
 Rating:
4/5 (4 votes)
Cinnamon Spider lessons Tabs too difficult? Try these video lessons and learn fast
                
hey this song is great and i think this is how it goes it sounds good ,see wot u think

verse
G-----------------------------------------------I
D-----------------------------------------------I
A--------------------------------3--------------I
E------3-5----3-5----3-5----35557---------------I

chorus
G-----------------------------------------------I
D-----------------------------------------------I
A--55555-888888-9-66666-55-5-5------------------I
E-------------------------5-5-5-----------------I

verse @ 1:59
G-------------I----------------------------------I
D-------------I----------------------------------I
A-------------I----------3-----------------------I
E--3-5-5-5/1--I----3-5557------------------------I

thats all it is enjoy!!
            
Submit corrections

comments powered by Disqus
↑ Back to top | Jack Off Jill Bass for Cinnamon Spider. Lyrics for acoustic guitar and electric guitar. Tablatures and chords are parodies/interpretations of the original songs. You may use it for private study, scholarship, research or language learning purposes only