» » »

Chocolate Chicken Tabs (ver.2)

Artists:  A B C D E F G H I J K L M N O P Q R S T U V W X Y Z # 

Chocolate Chicken Tabs (ver.2)

Jack Off Jill
Rating:
0/5 (0 votes)

Hard to play? Try these video lessons and learn fast.
                Chocolate Chicken by Jack Off Jill.

Okay, so i've seen a few Chocolate Chicken tabs on the internet and to be honest, 
pretty cr*p.
So here's how I play it:

Verses are just:

E----------------------------------|
A----------------------------------|
D----------------------------------|
G---------5-5-4-4---------5-5-5-5--|
B-6-6-5-5---------6-6-5-5----------|
e----------------------------------|

E----------------------------------|
A----------------------------------|
D----------------------------------|
G----------------------------------|
B----------------------------------|
e-8-8-7-7-6-6-5-5-8-8-7-7-6-6-6-6--|

And Choruses:

E-------------7--7--7--7--9--9--9--8--9--9--9--9--|
A-7--7--7--7--9--9--9--9--11-11-11-10-11-11-11-11-|
D-9--9--9--9--------------------------------------|
G-------------------------------------------------|
B-------------------------------------------------|
e-------------------------------------------------|

Repeat at will
            
Hard to play? Try these video lessons and learn fast. | Correct




comments powered by Disqus
↑ Back to top | Tablatures and chords are parodies/interpretations of the original songs. You may use it for private study, scholarship, research or language learning purposes only