» » »

Chocolate Chicken Bass tabs (ver.1)

Artists:  A B C D E F G H I J K L M N O P Q R S T U V W X Y Z # 

Chocolate Chicken Bass tabs (ver.1)

Jack Off Jill
Rating:
0/5 (0 votes)

Hard to play? Try these video lessons and learn fast.
                
May be a little off. Please e-mail me corrections.

Verse

G-------------------------------
D-------------------------------
A-------------------------------
E-0-0-1-0-0-0-3-0-0-0-1-0-0-4--3

Chorus

G-------------------------------------------------------------
D-2-2-2-2-----------------------1-2-2-2-2---------------------
A---------2-2-2-3-4-4-4-3-4-4-4-----------2-2-2-3-4-4-2-2-4--4
E-------------------------------------------------------------

End of second chorus and bridge

G--------------------------------------------------------------------------
D-2-2-2-2------------------------------------------------------------------
A---------2-2-2-3-4-4-4-2-4-4-4-2-4-4-4-2-4-4-4-0-2-2-2-0-2-2-2------------
E---------------------------------------------------------------3-4-4-4-3-1

G----------------------------------------------------------------------------
D----------------------------------------------------------------------------
A-2-4-4-4-2-4-4-4-2-4-4-4-2-4-4-4-0-2-2-2-0-2-2-2-------------2-4-4-4-4-4-4-4
E-------------------------------------------------3-4-4-4-3-1----------------
            
Hard to play? Try these video lessons and learn fast. | Correct




comments powered by Disqus
↑ Back to top | Tablatures and chords are parodies/interpretations of the original songs. You may use it for private study, scholarship, research or language learning purposes only