» » »

Jack Off Jill, Cherry Scented Bass tabs (ver.1)

Artists:  A B C D E F G H I J K L M N O P Q R S T U V W X Y Z # 

Cherry Scented Bass tabs (ver.1)

Jack Off Jill Tabs
Rating:
0/5 (0 votes)
Hard to play? Try these video lessons and learn fast.
                
The verse is probably off.

Intro

G------------
D------------
A-222--------
E-----333-222

Verse

G--------------
D--------------
A------2-------
E-2223---3-2222

Chorus

G--------------
D--------------
A------3-------
E-3334---4-3333

Solo

G---------------------
D---------------------
A---------------------
E-777-666-333-222-3-2/

Third verse

G-------------------
D-------------------
A----1----3----3-4-3
E-33---33---33------
            

comments powered by Disqus
↑ Back to top | Jack Off Jill Bass for Cherry Scented. Lyrics for acoustic guitar and electric guitar. Tablatures and chords are parodies/interpretations of the original songs. You may use it for private study, scholarship, research or language learning purposes only