» » »

Author Unknown Bass tabs (ver.1)

Artists:  A B C D E F G H I J K L M N O P Q R S T U V W X Y Z # 

Author Unknown Bass tabs (ver.1)

Jack Off Jill
Rating:
0/5 (0 votes)

Tabs too difficult? Try these video lessons and learn fast.
                
Probably off in a couple parts. Please send me corrections.

Intro

G-------
D-------
A--4-2--
E-4-0-02

Verse

G-------------------------------------------
D-------------------------------------------
A-----------------2h4p2---------------------
E-4-x-4-x-4-x-4-x--------4-x-4-x-4-x-4-x-0-2

Chorus

G------------------------------------------------------------
D------------------------------------------------------------
A-------------------4-------------------2-------------------4
E-4-x-4-x-4-x-4-x-4---4-x-4-x-4-x-4-x-4---4-x-4-x-4-x-4-x-4--

G--------------------
D--------------------
A--------------------
E-4-x-4-x-4-x-4-x-4-2


Second chorus(same as first, then play this at the end)

G--------
D--------
A---4-2--
E-4--0-02

Third verse

G------------------------------------------
D------------------------------------------
A-----------------2h4p2--------------------
E-xxx-4-4-xxx-4-4-------xxx-4-4-xxx-4-4-0-2

End

G------
D------
A-2-4--
E-----2

x = dead note
            
Tabs too difficult? Try these video lessons and learn fast.




comments powered by Disqus
↑ Back to top | Tablatures and chords are parodies/interpretations of the original songs. You may use it for private study, scholarship, research or language learning purposes only