» » »

Jack Off Jill, Angel's *** Bass tabs (ver.1)

Artists:  A B C D E F G H I J K L M N O P Q R S T U V W X Y Z # 

Angel's *** Bass tabs (ver.1)

Jack Off Jill Tabs
 Rating:
4/5 (4 votes)
Angel's *** lessons Tabs too difficult? Try these video lessons and learn fast
                Artist - Jack Off Jill
Song   - Angels ***


Verse part 1:

G----------------------------------I
D----------------------------------I
A----------------------------------I
E--5/9-9/8/7-----------------------I

Verse part 2;

G----------------------------------I
D----------------------------------I
A------98--87--76------------------I
E--5/9---7---6---5-----------------I

Chorus:

G----------------------------------I
D----------------------------------I
A-----------543------543----543----I
E--33333-444----333-4----333-------I

Outro:

G----------------------------------I
D----------------------------------I
A--------------33333-5555----------I
E--33333-55555---------------------I

thats it, you should manage to get the timings etc correct. On the outro for the 5's on A, play them more of a slight hammer on(tapping the fret doard on 5th)
            
Submit corrections

comments powered by Disqus
↑ Back to top | Jack Off Jill Bass for Angel's ***. Lyrics for acoustic guitar and electric guitar. Tablatures and chords are parodies/interpretations of the original songs. You may use it for private study, scholarship, research or language learning purposes only