» » »

You And Your Heart Tabs (ver.10)

Artists:  A B C D E F G H I J K L M N O P Q R S T U V W X Y Z # 

You And Your Heart Tabs (ver.10)

Jack Johnson
Rating:
0/5 (0 votes)

Hard to play? Try these video lessons and learn fast.
                -------------------------------------------------------------------------------
			     You and Your Heart – Jack Johnson
-------------------------------------------------------------------------------

Tuning:Standard

e|---------------------------------------------------------------------------|
B|---------------------------------------------------------------------------|
G|---------------------------------------------------------------------------|
D|----11-11-11--11-11---\9---------9--9--9---9--9----------------------------|
A|----12-12-12--12-12-------12-----10-10-10--10-10-9--10--12-----------------|
E|---------------------------------------------------------------------------|

e|---------------------------------------------------------------------------|
B|---------------------------------------------------------------------------|
G|---------------------------------------------------------------------------|
D|---------------------------------------------------------------------------|
A|--9--9--9---9-----9-10-9------9--9--9--9-----9-10-9------------------------|
E|--10-10-10--10----------------10-10-10-10----------------------------------|

G 	                  A
But you and your heart
	       D	        G
Shouldn't feel so far apart
G	                                 A
You can choose what you take
D			                            G    A
Why you gotta break and make it feel so hard

I heard this song for the first time today, so i hope its mostly correct. ill  listen to 
rest of the song later, see if its different at the end thanks. email if anything.
            
Hard to play? Try these video lessons and learn fast. | Correct




comments powered by Disqus
↑ Back to top | Tablatures and chords are parodies/interpretations of the original songs. You may use it for private study, scholarship, research or language learning purposes only