» » »

Jack Johnson, Wrong Turn Tabs (ver.1)

Artists:  A B C D E F G H I J K L M N O P Q R S T U V W X Y Z # 

Wrong Turn Tabs (ver.1)

Jack Johnson Tabs
 Rating:
4/5 (4 votes)
Wrong Turn lessons Tabs too difficult? Try these video lessons and learn fast
                

This is my first tab, so don't be too hard on me ;). Thanks to ski_bunnee for the 
verse (guitar 1).
I'm not sure that "guitar 3" is 100% accurate, but it works. Have a look at my Guitar 
tab for this song too.


::Guitar 1::

Verse:
00:00, 02:13

e|---------0---------------------------------------------------------|
B|----1------1---1---1------1-----1---1------1------1---1----1-------|
G|------0--------------0------0---------0------0----------0----0---0-|
D|--------2----2---3------2-----0--------------------------------0---|
A|--3--------------------------------------0----------------2--------|
E|----------------------------------1------------1----3--------------|

If you listen carefully, you hear that Jack sometimes plays C G E C G E
instead of C G E E G E in the beginning of the verse:

e|-------------------|
B|----1------1-----1-|
G|------0------0-----|
D|--------2------2---|
A|--3----------------|
E|-------------------|

... and at the very end:

e|--0--|
B|--1--|
G|--0--|
D|--2--|
A|--3--|
E|-----|


Brigde:
01:43

e|----------------------------------------------------------------------------|
B|----1------1------1----1------1------1---1----1----------1----1-------------|
G|------0------0-----------0------0----------0----0---0------0----0---0-------|
D|--------------------------------------------------0---------------0---------|
A|---------0-----3------------0-----3----------2---------------2--------------|
E|--1------------------1-----------------3---------------3--------------------|

::Guitar 2::

Solo part 1:
00:16, 01:30, 02:37

e|--0h3h5p0-----------------------0h3-3--|
B|----------3-1h3p1-----------1h3--------|
G|------------------2-2---0h2------------|
D|---------------------------------------|
A|---------------------------------------|
E|---------------------------------------|

Solo part 2:
(Note that this part are _not_ always played directly after part 1)
00:24, 01:37, 02:45

e|--0h3h5p0------------------------------|
B|----------3-1h3p1-----------0---1/3-1--|
G|------------------2-2---0--------------|
D|---------------------------------------|
A|---------------------------------------|
E|---------------------------------------|


::Guitar 3::

Verse:
00:59, 02:13

e|--8-----8-----8---8-----8-----8---8-----0-----8---10-----10-----10---|
B|----8-----------8---8-----8-----8---8-----------8----8------8------8-|
G|------9-----9---------9-----9---------9-----9----------9------9------|
D|---------------------------------------------------------------------|
A|---------------------------------------------------------------------|
E|---------------------------------------------------------------------|

Bridge:
01:43

e|--8-----8-----8---8-----8-----8---10-----10-----10---10-----10-----10---|
B|----8-----------8---8-----------8----8-------------8----8-------------8-|
G|------9-----9---------9-----9----------9------9-----------9------9------|
D|------------------------------------------------------------------------|
A|------------------------------------------------------------------------|
E|------------------------------------------------------------------------|
            
Submit corrections

comments powered by Disqus
↑ Back to top | Jack Johnson Tabs for Wrong Turn. Lyrics for acoustic guitar and electric guitar. Tablatures and chords are parodies/interpretations of the original songs. You may use it for private study, scholarship, research or language learning purposes only