» » »

Jack Johnson, What You Thought You Need Tabs (ver.3)

Artists:  A B C D E F G H I J K L M N O P Q R S T U V W X Y Z # 

What You Thought You Need Tabs (ver.3)

Jack Johnson Tabs
Rating:
0/5 (0 votes)
What You Thought You Need lessons Tabs too difficult? Try these video lessons and learn fast
                
e-----------------------------------------------------|
B-----------------------------------------------------|
G-----------------------------------------------------|
D-----2s5--------5s7------s5--------------------------|
A--3---------7---------8---------7---8---7------------|
E-----------------------------------------------8-----|

then during the humming

e--------------------------------------------------------------|
B--------------------------------------------------------------|
G--------------------------------------------------------------|
D----2----2-----9---9--------2---2-----9---9s10s12-------------|
A--3----3----s7---7--7-----3---3---s7---7----------------------|
E--------------------------------------------------------------|

Verse

C Chord is played like this

e---0-------|
B---1-------|
G---0-------|
D---0h2-----|
A---3-------|
E---0-------|

Chords

C                Em
Hmm  hmm hmm hmm hmm
C                Em
Hmm  hmm hmm hmm hmm
Dm               C
Hmm  hmm hmm hmm hmm
Dm                C
Hmm  hmm hmm hmm hmm


C
I can't give you everything you want
                                          Dm
But I could give you what you thought you needed

A map to keep beneath your seat
                                       C
you've been to me in time I'll get you there
  Dm
I fold it up so we don't find our way back soon
                    C
nobody knows we are here


We can park the van and walk to town
                                           Dm
Find cheapest bottle of wine that we could find

And talk about the road behind
                                   C
how getting lost is not a waste of time.
    Dm
The water moor will take us home in the moment
                           C
we will sing as the forest sleeps

          Em           Dm                    C
Well it's all for the sake of arriving with you
          Em           Dm                    C
Well it's all for the sake of arriving with you


I will make the table into a bed
The candle is burning down its time to rest
I can't take back things already gone
but I could give you promises for keeps
And I would only take them back if they become your own
and you give 'em to me


And it's all for the sake of arriving with you
Well it's all for the sake of arriving with you

         Em
We could make this into anything
         Dm                                C
We could make this into more than words we speak
         Em
This could make us into anything
         Dm                                C
It could make us grow and become what we'll be


intro

C                Em
Hmm  hmm hmm hmm hmm
C               Em
How and we will know
                  Dm
It's just like it feels
                  C
It's just like it feels


intro


C                Em
Hmm  hmm hmm hmm hmm
C                 Em
How can we really know
                  Dm
It's just like it feels
                  C
It's just like it feels
                  Dm
It's just like it feels
            C
How does it feel
                  Dm
It's just like it feels
                  C
It's just like it feels
            
Submit corrections

comments powered by Disqus
↑ Back to top | Jack Johnson Tabs for What You Thought You Need. Lyrics for acoustic guitar and electric guitar. Tablatures and chords are parodies/interpretations of the original songs. You may use it for private study, scholarship, research or language learning purposes only