» » »

Jack Johnson, Were Going To Be Friends Tabs (ver.1)

Artists:  A B C D E F G H I J K L M N O P Q R S T U V W X Y Z # 

Were Going To Be Friends Tabs (ver.1)

Jack Johnson Tabs
 Rating:
4/5 (4 votes)
Were Going To Be Friends lessons Tabs too difficult? Try these video lessons and learn fast
1
                The other tabs on here were very good, I just wanted to add an extra bass
note in the strumming pattern that Jack uses and gives the song more drive.
Also added a 5 tone in all the G chords to make it brighter.  The picking is
a little tougher this way but very rewarding.


Verses
e|--------2-------2-------2-------2-------3-------0-------2-------2--|
B|----3-------3-------3-------3-------3-------3-------3-------3------|
G|------2-------2-------2-------2-------0-------0-------2-------2----|
D|--0---0---0---0---0---0---0---0-------------------0---0---0---0----|
A|-------------------------------------------------------------------|
E|----------------------------------3---3---3---3--------------------|
    D                               G               D

Chorus
e|--------0-------0-------2-------2--|
B|----2-------3-------3-------3------|
G|------2-------0-------2-------2----|
D|------------------0---0---0---0----|
A|--0---0----------------------------|
E|----------3---3--------------------|
    A       G       D

Bridge
e|--------3-------0-------2-------2-------3-------0-------2-------2--|
B|----3-------3-------3-------3-------3-------3-------3-------3------|
G|------0-------0-------2-------2-------0-------0-------2-------2----|
D|------------------0---0---0---0-------------------0---0---0---0----|
A|-------------------------------------------------------------------|
E|--3---3---3---3-------------------3---3---3---3--------------------|
    G               D               G               D
e|--------0-------0-------0-------0--------3-------0------------------|
B|----0-------0-------0-------0--------3-------3-------2---2---2---2--|
G|------1-------1-------1-------1--------0-------0-------2-------2----|
D|--------------------------------------------------------------------|
A|---------------------------------------------------0---0---0---0----|
E|--0---0---0---0---0---0---0---0----3---3---3---3--------------------|
    E                                G               A

Lyrics + Chords Reference

D
fall is here, hear the yell
D 
back to school, ring the bell
G 
brand new shoes, walking blues
D 
climb the fence, book and pens
A               G               D 
i can tell that we are gonna be friends 

walk with me, suzy lee 
through the park, by the tree 
we will rest upon the ground 
and look at all the bugs we've found 
then safely walk to school 
without a sound 

well here we are, no one else 
we walked to school all by ourselves 
there's dirt on our uniforms 
we clean up and now it's time to learn 


numbers, letters, learn to spell 
nouns, and books, and show and tell 
at playtime we will throw the ball 
back to class, through the hall 
teacher marks our height against the wall 

G                        D
and we don't notice any time pass
G                  D
we don't notice anything
E 
we sit side by side in every class
G 
teacher thinks that i sound funny
A
but she likes the way you sing 

tonight i'll dream while i'm in bed 
when sill thoughts go through my head 
about the bugs and alphabet 
and when i wake tomorrow i'll bet 
that you and i will walk together again 
cause i can tell that we 
are going to be friends
            
Submit corrections

comments powered by Disqus
↑ Back to top | Jack Johnson Tabs for Were Going To Be Friends. Lyrics for acoustic guitar and electric guitar. 1 Tablatures and chords are parodies/interpretations of the original songs. You may use it for private study, scholarship, research or language learning purposes only