» » »

Jack Johnson, Upside Down Bass tabs (ver.1)

Artists:  A B C D E F G H I J K L M N O P Q R S T U V W X Y Z # 

Upside Down Bass tabs (ver.1)

Jack Johnson Tabs
 Rating:
4/5 (4 votes)
Upside Down lessons Tabs too difficult? Try these video lessons and learn fast
                -------------------------------------------------------------------------------
			     Upside Down - Jack Johnson
-------------------------------------------------------------------------------


Tuning: Standard (E,A,D,G)

Intro x4 (Bass come in when he starts singing)(11 is an eleven)
G|------------------------------------------|
D|------------------------------------------|
A|-7--77---9-7--77---7-9--99---11-9--99---9-|
E|-------7---------7---------9----------7---|

Chorus x4
G|---------------------|
D|---------------------|
A|-7--79-9-9-----------|
E|-----------5--57-7-7-|

Post Chorus (You'll have to listen carefully for the bass here)
G|---------------------------|
D|---------------------------|
A|-7~---------------7~----7~-|
E|---------------------------|

Verse x2
G|------------------------------------------|
D|------------------------------------------|
A|-7--77---9-7--77---7-9--99---11-9--99---9-|
E|-------7---------7---------9----------7---|

Chorus x4
G|---------------------|
D|---------------------|
A|-7--79-9-9-----------|
E|-----------5--57-7-7-|

Bridge ( 11,12,and 14 are elevens,twelves,and fourteens )
G|-------------------------------------------------------|
D|-------------------------------------------------------|
A|-11--1111----11-9--99---9-11--1111----11-12-1214-14-14-|
E|----------11----------9------------11------------------|

Outro x2 (Bracketed note played on second time only)
G|--------------------------|
D|--------------------------|
A|-7--79-9-9-----------[7~]-|
E|-----------5--57-7-7------|

Thats All... I'm am sure this is 100% correct...Really quite a simple part....Had it 
in my head for a month so I just had to tab it! Please rate!


| /  slide up
| \  slide down
| h  hammer-on
| p  pull-off
| ~  vibrato
| +  harmonic
| x  Mute note
===============================================================================
            
Submit corrections

comments powered by Disqus
↑ Back to top | Jack Johnson Bass for Upside Down. Lyrics for acoustic guitar and electric guitar. Tablatures and chords are parodies/interpretations of the original songs. You may use it for private study, scholarship, research or language learning purposes only