» » »

Traffic In The Sky Bass tabs (ver.1)

Artists:  A B C D E F G H I J K L M N O P Q R S T U V W X Y Z # 

Traffic In The Sky Bass tabs (ver.1)

Jack Johnson
Rating:
0/5 (0 votes)

Hard to play? Try these video lessons and learn fast.
                Tuning - Standard

Really easy, mellow song. Fun and nice for beginners or any Jack Johnson fan really...

VERSE

G|-----------------------------------------------|
D|-----------------------------------------------|
A|---5~-----9~-----3~------7~--------------------|
E|-----------------------------------------------|

PRE-CHORUS

G|-----------------------------------------------|
D|-----------------------------------------------|
A|-----------------------------------------------|
E|---5~-----5--4--3~-----3/5~---5~---------------|

CHORUS

G|-----------------------------------------------|
D|-----------------------------------------------|
A|---5~-----2~-----------------------------------|
E|------------------3~-----3/5~--5---------------|

Just follow the song, like I said, simple. Repeat when needed... etc.
-Matt
            
Hard to play? Try these video lessons and learn fast. | Correct




comments powered by Disqus
↑ Back to top | Tablatures and chords are parodies/interpretations of the original songs. You may use it for private study, scholarship, research or language learning purposes only