>
 >
Taylor 2

Taylor 2 Guitar Tabs

Jack Johnson - Taylor 2 chords, tabs, tablatures, lyrics

Guitar lessons | Add/correct | Request | Top 50 tabs Artists:  A B C D E F G H I J K L M N O P Q R S T U V W X Y Z 0-9

Taylor 2 Guitar Tabs – Jack Johnson

CD, Sheet music, Poster

Do you like Taylor 2? Share with your friends now
Bass TabsChordsChords v2Chords v3TabsTabs v2Tabs v3Tabs v4Tabs v5Tabs v6Ukulele
Intro Lick

e|------X----------------------X----------------X-------------------
B|------X----------------------X----------------X-------------------
G|------X----------------------X----------------X-------------------
D|------X----------------------X----------------X--1h3p1---1p0------
A|-013--X--1h3p1---1-11--------X-----1-2-0-1/3--X--------3-----3p0--
E|------X--------3-----3p0-11--X--123-----------X-------------------

e|--------X--------------------X---------------------------X-----X--|
B|--------X--------------------X---------------------------X--4--X--|
G|--------X--------------------X---------------------------X--2--X--|
D|--------X--------------------X--3-3/5-5-3p0-2p0----------X--3--X--|
A|--------X----1---1---1--1-3--X------------------3p0------X--3--X--|
E|-0-1-1--X-1h3-1h3-1h3-1------X----------------------1-1--X-----X--|

e|----------0----0---0---0------0--|
B|---1--1-3/5-5--3-3-1-1-1------1--|
G|---0--0-0-0----0---0---0h2p0--2--|
D|---2--2-2---------------------3--|
A|-0h3--3-3------------------------|
E|---------------------------------| 

this is played thur out the rest of the song until the outro progression/bridge thing 

Jack kinda palm mutes and kinda doesnt when he plays this .... u will know what i mean if u have heard it                                                


e|---------------------------------------
B|---------------------------------------
G|---------------------------------------
D|--5555X000-5555X000-2222X000-3333X000--
A|--3333X000-2222X000-0000X000-3333X000--
E|---------------------------------------

Chorus:played by second guitar while first guitar keeps playing the verse


        C       G       Am     F
e|-------3---------1---------------------------
B|--5----3----5----1---------------------------
G|--5----4----5----2---------------------------
D|--5----5----7----3---------------------------
A|--3----5----7----3---------------------------
E|--3----3----5----1---------------------------

outro Progression/bridge

e|-(0)-----------------------------------------------------
B|--1--1-1--1-1-/-3--3-3--3-3-/-6--6-6--6-6-/-8--8-8--8-8--
G|--0--0-0--0-0-/-0--0-0--0-0-/-0--0-0--0-0-/-0--0-0--0-0--
D|--2--2-2--2-2-/-4--4-4--4-4-/-7--7-7--7-7-/-9--9-9--9-9--
A|--3--3-3--3-3-/-5--5-5--5-5-/-8--8-8--8-8-/-10-1010-1010-
E|---------------------------------------------------------

Use the intro as the outro

first tab but i think it is about 95% correct

Jakc is just sweet.... gotta give him props





Comments


Popular Jack Johnson tabs & chords
All At Once Bass Tabs
Breakdown Bass Tabs
Please Me Like You Want To Chords
Same Girl Chords
Were Going To Be Friends Chords
Cupid 1 Tabs
What You Thought You Need Tabs
F Stop Blues Ukulele
They Do They Dont Ukulele
You And Your Heart 2 Ukulele


Song lyrics



↑ Back to top | Tablatures and chords are parodies/interpretations of the original songs. You may use it for private study, scholarship, research or language learning purposes only
© 2014 AZChords.com Contact us | Privacy policy | DMCA | Add/correct tabs | Request tabs | Top 50 tabs