>
 >
Taylor 1

Taylor 1 Guitar Tabs

Jack Johnson - Taylor 1 chords, tabs, tablatures, lyrics

Guitar lessons | Add/correct | Request | Top 50 tabs Artists:  A B C D E F G H I J K L M N O P Q R S T U V W X Y Z 0-9

Taylor 1 Guitar Tabs – Jack Johnson

CD, Sheet music, Poster

Do you like Taylor 1? Share with your friends now
Bass TabsChordsChords v2Chords v3TabsTabs v2Tabs v3Tabs v4Tabs v5Tabs v6Ukulele
Tuning: Standard (EADGBE)

For the verses and chorus just listen to the song for the strumming.
Cheers, have fun ;)
Gordz

Intro:

e|--------------------------------------------------------------
B|--------------------------------------------------------------
G|--------------------------------------------------------------
D|--------------------------------------------------------------
A|-xx-1h3--xx--1h3p1h3-1-1------------xx---------1-2-1-1h3-xx---
E|-xx------xx---------------1h3p1-1-1-xx--1h3/4------------xx---


e|--------------------------------------------------------------
B|--------------------------------------------------------------
G|--------------------------------------------------------------
D|-1h3p1---1p0---------------------------------------3-3/5-5----
A|-------3-----3p1p0-----xx-----1---1---1---1-3--xx-------------
E|-------------------1-1-xx--1h3-1h3-1h3-1h3-----xx-------------


e|----------------------1------0--------------------------------1-----
B|----------------------1------1----1--3/5-5--3-3--1-1-0h1p0----1-----
G|----------------------2------0----0--0-0-0--0-0--0-0-0--------2-----
D|-3p0-1p0--------------3------2--------------------------------3-----
A|----------3p0-----xx--3--xx--3--------------------------------------
E|--------------1-1-xx--1--xx--0--------------------------------------



Verse: (chords)
      C	        G         Am          F
  pm...........................................
e|----0---------3---------------------1------------
B|----1---------3----------1----------1------------	
G|----0---------0----------2----------2------------	x4
D|----2---------0----------2----------3------------
A|----3---------2----------0-----------------------
E|----0---------3----------------------------------



Chorus: 
      C	        G         Am          F
e|--------------3---------------------1------------ 
B|----1---------3----------1----------1------------	   
G|----0---------0----------2----------2------------	x4 - On 4th time hold the Am
D|----2---------0----------2----------3------------	     and omit the F.
A|----3---------2----------0-----------------------
E|----0---------3----------------------------------



Outro:

e|--0------0------0------0---------
B|--1------3------6------8---------
G|--0------0------0------0---------	x2
D|--2------4------7------9---------
A|--3------5------8------10--------
E|--0------0------0------0---------

Then play Intro once right through to finish.





Comments


Popular Jack Johnson tabs & chords
Upside Down Bass Tabs
Breakdown 5 Chords
Losing Hope Chords
My Little Girl 4 Chords
Rodeo Clowns 2 Chords
From The Clouds Tabs
Rainbow Intro Tabs
Same Girl Tabs
Taylor 2 Tabs
Times Like These 1 Tabs


Song lyrics



↑ Back to top | Tablatures and chords are parodies/interpretations of the original songs. You may use it for private study, scholarship, research or language learning purposes only
© 2014 AZChords.com Contact us | Privacy policy | DMCA | Add/correct tabs | Request tabs | Top 50 tabs